  0
SECTION
  2
HEADER
  9
$ACADVER
  1
AC1015
  9
$ACADMAINTVER
 70
    20
  9
$DWGCODEPAGE
  3
ANSI_1252
  9
$INSBASE
 10
0.0
 20
0.0
 30
0.0
  9
$EXTMIN
 10
0.4964467062381459
 20
0.4900867362331809
 30
-0.0000000349181948
  9
$EXTMAX
 10
34.5001450408022
 20
22.49250779030557
 30
0.0000000814935747
  9
$LIMMIN
 10
0.0
 20
0.0
  9
$LIMMAX
 10
12.0
 20
9.0
  9
$ORTHOMODE
 70
     0
  9
$REGENMODE
 70
     1
  9
$FILLMODE
 70
     1
  9
$QTEXTMODE
 70
     0
  9
$MIRRTEXT
 70
     0
  9
$LTSCALE
 40
1.0
  9
$ATTMODE
 70
     1
  9
$TEXTSIZE
 40
1.0
  9
$TRACEWID
 40
0.05
  9
$TEXTSTYLE
  7
STANDARD
  9
$CLAYER
  8
1
  9
$CELTYPE
  6
Continuous
  9
$CECOLOR
 62
     1
  9
$CELTSCALE
 40
1.0
  9
$DISPSILH
 70
     0
  9
$DIMSCALE
 40
1.0
  9
$DIMASZ
 40
0.125
  9
$DIMEXO
 40
0.0625
  9
$DIMDLI
 40
0.25
  9
$DIMRND
 40
0.0
  9
$DIMDLE
 40
0.0
  9
$DIMEXE
 40
0.125
  9
$DIMTP
 40
0.005
  9
$DIMTM
 40
-0.005
  9
$DIMTXT
 40
0.125
  9
$DIMCEN
 40
0.09
  9
$DIMTSZ
 40
0.0
  9
$DIMTOL
 70
     0
  9
$DIMLIM
 70
     0
  9
$DIMTIH
 70
     1
  9
$DIMTOH
 70
     1
  9
$DIMSE1
 70
     0
  9
$DIMSE2
 70
     0
  9
$DIMTAD
 70
     0
  9
$DIMZIN
 70
     0
  9
$DIMBLK
  1

  9
$DIMASO
 70
     1
  9
$DIMSHO
 70
     1
  9
$DIMPOST
  1

  9
$DIMAPOST
  1

  9
$DIMALT
 70
     0
  9
$DIMALTD
 70
     0
  9
$DIMALTF
 40
25.4
  9
$DIMLFAC
 40
1.0
  9
$DIMTOFL
 70
     1
  9
$DIMTVP
 40
0.0
  9
$DIMTIX
 70
     0
  9
$DIMSOXD
 70
     0
  9
$DIMSAH
 70
     0
  9
$DIMBLK1
  1

  9
$DIMBLK2
  1

  9
$DIMSTYLE
  2
DSTYLE1
  9
$DIMCLRD
 70
     0
  9
$DIMCLRE
 70
     0
  9
$DIMCLRT
 70
     0
  9
$DIMTFAC
 40
1.0
  9
$DIMGAP
 40
0.0625
  9
$DIMJUST
 70
     0
  9
$DIMSD1
 70
     0
  9
$DIMSD2
 70
     0
  9
$DIMTOLJ
 70
     1
  9
$DIMTZIN
 70
     0
  9
$DIMALTZ
 70
     0
  9
$DIMALTTZ
 70
     0
  9
$DIMUPT
 70
     0
  9
$DIMDEC
 70
     4
  9
$DIMTDEC
 70
     4
  9
$DIMALTU
 70
     2
  9
$DIMALTTD
 70
     2
  9
$DIMTXSTY
  7
STANDARD
  9
$DIMAUNIT
 70
     0
  9
$DIMADEC
 70
     0
  9
$DIMALTRND
 40
0.0
  9
$DIMAZIN
 70
     0
  9
$DIMDSEP
 70
    46
  9
$DIMATFIT
 70
     3
  9
$DIMFRAC
 70
     0
  9
$DIMLDRBLK
  1

  9
$DIMLUNIT
 70
     2
  9
$DIMLWD
 70
    -2
  9
$DIMLWE
 70
    -2
  9
$DIMTMOVE
 70
     0
  9
$LUNITS
 70
     2
  9
$LUPREC
 70
     3
  9
$SKETCHINC
 40
0.1
  9
$FILLETRAD
 40
0.5
  9
$AUNITS
 70
     0
  9
$AUPREC
 70
     1
  9
$MENU
  1
.
  9
$ELEVATION
 40
0.0
  9
$PELEVATION
 40
0.0
  9
$THICKNESS
 40
0.0
  9
$LIMCHECK
 70
     0
  9
$CHAMFERA
 40
0.25
  9
$CHAMFERB
 40
0.25
  9
$CHAMFERC
 40
0.0
  9
$CHAMFERD
 40
0.0
  9
$SKPOLY
 70
     0
  9
$TDCREATE
 40
2454963.564300833
  9
$TDUCREATE
 40
2454963.772634167
  9
$TDUPDATE
 40
2456519.349072546
  9
$TDUUPDATE
 40
2456519.557405880
  9
$TDINDWG
 40
0.0016569213
  9
$TDUSRTIMER
 40
0.0016568519
  9
$USRTIMER
 70
     1
  9
$ANGBASE
 50
0.0
  9
$ANGDIR
 70
     0
  9
$PDMODE
 70
     2
  9
$PDSIZE
 40
-0.01
  9
$PLINEWID
 40
0.0
  9
$SPLFRAME
 70
     0
  9
$SPLINETYPE
 70
     6
  9
$SPLINESEGS
 70
     8
  9
$HANDSEED
  5
6AE
  9
$SURFTAB1
 70
     6
  9
$SURFTAB2
 70
     6
  9
$SURFTYPE
 70
     6
  9
$SURFU
 70
     6
  9
$SURFV
 70
     6
  9
$UCSBASE
  2

  9
$UCSNAME
  2

  9
$UCSORG
 10
0.0
 20
0.0
 30
0.0
  9
$UCSXDIR
 10
1.0
 20
0.0
 30
0.0
  9
$UCSYDIR
 10
0.0
 20
1.0
 30
0.0
  9
$UCSORTHOREF
  2

  9
$UCSORTHOVIEW
 70
     0
  9
$UCSORGTOP
 10
0.0
 20
0.0
 30
0.0
  9
$UCSORGBOTTOM
 10
0.0
 20
0.0
 30
0.0
  9
$UCSORGLEFT
 10
0.0
 20
0.0
 30
0.0
  9
$UCSORGRIGHT
 10
0.0
 20
0.0
 30
0.0
  9
$UCSORGFRONT
 10
0.0
 20
0.0
 30
0.0
  9
$UCSORGBACK
 10
0.0
 20
0.0
 30
0.0
  9
$PUCSBASE
  2

  9
$PUCSNAME
  2

  9
$PUCSORG
 10
0.0
 20
0.0
 30
0.0
  9
$PUCSXDIR
 10
1.0
 20
0.0
 30
0.0
  9
$PUCSYDIR
 10
0.0
 20
1.0
 30
0.0
  9
$PUCSORTHOREF
  2

  9
$PUCSORTHOVIEW
 70
     0
  9
$PUCSORGTOP
 10
0.0
 20
0.0
 30
0.0
  9
$PUCSORGBOTTOM
 10
0.0
 20
0.0
 30
0.0
  9
$PUCSORGLEFT
 10
0.0
 20
0.0
 30
0.0
  9
$PUCSORGRIGHT
 10
0.0
 20
0.0
 30
0.0
  9
$PUCSORGFRONT
 10
0.0
 20
0.0
 30
0.0
  9
$PUCSORGBACK
 10
0.0
 20
0.0
 30
0.0
  9
$USERI1
 70
     0
  9
$USERI2
 70
     0
  9
$USERI3
 70
     0
  9
$USERI4
 70
     0
  9
$USERI5
 70
     0
  9
$USERR1
 40
0.0
  9
$USERR2
 40
0.0
  9
$USERR3
 40
0.0
  9
$USERR4
 40
0.0
  9
$USERR5
 40
0.0
  9
$WORLDVIEW
 70
     1
  9
$SHADEDGE
 70
     3
  9
$SHADEDIF
 70
    70
  9
$TILEMODE
 70
     1
  9
$MAXACTVP
 70
    64
  9
$PINSBASE
 10
0.0
 20
0.0
 30
0.0
  9
$PLIMCHECK
 70
     0
  9
$PEXTMIN
 10
1.000000000000000E+20
 20
1.000000000000000E+20
 30
1.000000000000000E+20
  9
$PEXTMAX
 10
-1.000000000000000E+20
 20
-1.000000000000000E+20
 30
-1.000000000000000E+20
  9
$PLIMMIN
 10
0.0
 20
0.0
  9
$PLIMMAX
 10
12.0
 20
9.0
  9
$UNITMODE
 70
     0
  9
$VISRETAIN
 70
     1
  9
$PLINEGEN
 70
     0
  9
$PSLTSCALE
 70
     1
  9
$TREEDEPTH
 70
  3020
  9
$CMLSTYLE
  2
Standard
  9
$CMLJUST
 70
     0
  9
$CMLSCALE
 40
1.0
  9
$PROXYGRAPHICS
 70
     1
  9
$MEASUREMENT
 70
     0
  9
$CELWEIGHT
370
    -1
  9
$ENDCAPS
280
     0
  9
$JOINSTYLE
280
     0
  9
$LWDISPLAY
290
     0
  9
$INSUNITS
 70
     0
  9
$HYPERLINKBASE
  1

  9
$STYLESHEET
  1
monochrome.ctb
  9
$XEDIT
290
     1
  9
$CEPSNTYPE
380
     0
  9
$PSTYLEMODE
290
     1
  9
$FINGERPRINTGUID
  2
{507C5302-E534-4EAA-BDAC-4755CE86A3B1}
  9
$VERSIONGUID
  2
{B5322A72-6C6D-4BF1-B7C3-9833398DF448}
  9
$EXTNAMES
290
     1
  9
$PSVPSCALE
 40
0.0
  9
$OLESTARTUP
290
     0
  0
ENDSEC
  0
SECTION
  2
CLASSES
  0
CLASS
  1
ACDBDICTIONARYWDFLT
  2
AcDbDictionaryWithDefault
  3
ObjectDBX Classes
 90
        0
280
     0
281
     0
  0
CLASS
  1
TABLESTYLE
  2
AcDbTableStyle
  3
ObjectDBX Classes
 90
     4095
280
     0
281
     0
  0
CLASS
  1
DICTIONARYVAR
  2
AcDbDictionaryVar
  3
ObjectDBX Classes
 90
        0
280
     0
281
     0
  0
CLASS
  1
ACDBPLACEHOLDER
  2
AcDbPlaceHolder
  3
ObjectDBX Classes
 90
        0
280
     0
281
     0
  0
CLASS
  1
LAYOUT
  2
AcDbLayout
  3
ObjectDBX Classes
 90
        0
280
     0
281
     0
  0
CLASS
  1
MATERIAL
  2
AcDbMaterial
  3
ObjectDBX Classes
 90
     1153
280
     0
281
     0
  0
CLASS
  1
VISUALSTYLE
  2
AcDbVisualStyle
  3
ObjectDBX Classes
 90
     4095
280
     0
281
     0
  0
CLASS
  1
SCALE
  2
AcDbScale
  3
ObjectDBX Classes
 90
     1153
280
     0
281
     0
  0
CLASS
  1
MLEADERSTYLE
  2
AcDbMLeaderStyle
  3
ACDB_MLEADERSTYLE_CLASS
 90
     4095
280
     0
281
     0
  0
CLASS
  1
ACME_DOCUMENT
  2
AcMeDbDoc
  3
AcMeServices
 90
     1024
280
     0
281
     0
  0
CLASS
  1
ACMESCOPE
  2
AcMeScope
  3
AcMeServices
 90
     1024
280
     0
281
     0
  0
CLASS
  1
ACMECOMMANDHISTORY
  2
AcMeCommandHistory
  3
AcMeServices
 90
     1024
280
     0
281
     0
  0
CLASS
  1
ACIMSYSVARMAN
  2
AcImSysVarManager
  3
AcMeServices
 90
     1024
280
     0
281
     0
  0
CLASS
  1
ACIMINTSYSVAR
  2
AcImIntSysVar
  3
AcMeServices
 90
     1024
280
     0
281
     0
  0
CLASS
  1
ACMEDRAWINGMAN
  2
AcMeDrawingMan
  3
AcMeServices
 90
     1024
280
     0
281
     0
  0
CLASS
  1
ACMEVIEW
  2
AcMeView
  3
AcMeServices
 90
     1024
280
     0
281
     0
  0
CLASS
  1
ACDBENTITYCACHE
  2
AcMeEntityCache
  3
AcMeServices
 90
     1024
280
     0
281
     0
  0
CLASS
  1
ACMESTATEMGR
  2
AcMeStateMgr
  3
AcMeServices
 90
     1024
280
     0
281
     0
  0
CLASS
  1
ACGREFMASTER
  2
AcGrefMaster
  3
AcAttribServices
 90
     1024
280
     0
281
     0
  0
CLASS
  1
AM_DRAWING_MGR
  2
AcDmDwgMgr
  3
AcMechDwgViewMgmt
 90
     1024
280
     0
281
     0
  0
CLASS
  1
AM_DWG_DOCUMENT
  2
AcDmDwgDocument
  3
AcMechDwgViewMgmt
 90
     1024
280
     0
281
     0
  0
CLASS
  1
AM_DWG_SHEET
  2
AcDmSheet
  3
AcMechDwgViewMgmt
 90
     1024
280
     0
281
     0
  0
CLASS
  1
AM_VIEWDIMPARMAP
  2
AcDmViewDimParMap
  3
AcMechDwgViewMgmt
 90
     1024
280
     0
281
     0
  0
CLASS
  1
AMDTINTERNALREACTOR
  2
AmdtInternalReactor
  3
AcMeServices
 90
     1024
280
     0
281
     0
  0
CLASS
  1
ACIMREALSYSVAR
  2
AcImRealSysVar
  3
AcMeServices
 90
     1024
280
     0
281
     0
  0
CLASS
  1
AM_DWGMGR_NAME
  2
AcDmDwgMgrName
  3
AcMechDwgViewMgmt
 90
     1024
280
     0
281
     0
  0
CLASS
  1
ACME_DATABASE
  2
AcMeDbDatabase
  3
AcMeServices
 90
     1024
280
     0
281
     0
  0
CLASS
  1
ACRFINSADJUSTERMGR
  2
AcRfInsAdjusterMgr
  3
AcMeServices
 90
     1024
280
     0
281
     0
  0
CLASS
  1
ACGREFACADMASTER
  2
AcGrefacadMaster
  3
AcGrefServices
 90
     1024
280
     0
281
     0
  0
CLASS
  1
AMDTMENUSTATEMGR
  2
AmdtMenuStateMgr
  3
McadcomServices
 90
     1024
280
     0
281
     0
  0
CLASS
  1
AMDTMCOMMENUSTATE
  2
AmdtMcomMenuState
  3
McadcomServices
 90
     1024
280
     0
281
     0
  0
CLASS
  1
AMIMASTER
  2
AmiMaster
  3
AmiServices
 90
     1024
280
     0
281
     0
  0
CLASS
  1
AMGSETTINGSOBJ
  2
AmgSettingsObj
  3
"AcadM|Product Description: AutoCAD Mechanical|Company: Autodesk, Inc."
 90
     1024
280
     0
281
     0
  0
CLASS
  1
MAPIAMMOUDLE
  2
MApiAmModule
  3
MApiAmServices
 90
     1024
280
     0
281
     0
  0
CLASS
  1
ACIMSTRSYSVAR
  2
AcImStrSysVar
  3
AcMeServices
 90
     1024
280
     0
281
     0
  0
CLASS
  1
AMDTADMENUSTATE
  2
AmdtAdMenuState
  3
DesignerServices
 90
     1024
280
     0
281
     0
  0
CLASS
  1
ADAPPL
  2
AcAdAppl
  3
DesignerServices
 90
     1024
280
     0
281
     0
  0
CLASS
  1
DEPMGR
  2
AcAdDepMgr
  3
DesignerServices
 90
     1024
280
     0
281
     0
  0
CLASS
  1
PARAMMGR
  2
AcAdParamMgr
  3
DesignerServices
 90
     1024
280
     0
281
     0
  0
CLASS
  1
PARAMSCOPE
  2
AcAdParamScope
  3
DesignerServices
 90
     1024
280
     0
281
     0
  0
CLASS
  1
NAMEDAPPL
  2
AcAdNamedAppl
  3
DesignerServices
 90
     1024
280
     0
281
     0
  0
CLASS
  1
AMDTDMMENUSTATE
  2
AmdtDmMenuState
  3
AcMechDwgViewMgmt
 90
     1024
280
     0
281
     0
  0
CLASS
  1
AMDTAMMENUSTATE
  2
AmdtAmMenuState
  3
DesignerAssemblies
 90
     1024
280
     0
281
     0
  0
CLASS
  1
ACAMPROJECT
  2
AcAmProject
  3
DesignerAssemblies
 90
     1024
280
     0
281
     0
  0
CLASS
  1
ACAMGRCOMPDEF
  2
AcAmGrCompDef
  3
DesignerAssemblies
 90
     1024
280
     0
281
     0
  0
CLASS
  1
ACAMCOMPDEF
  2
AcAmCompDef
  3
DesignerAssemblies
 90
     1024
280
     0
281
     0
  0
CLASS
  1
ACAMCOMPDEFMGR
  2
AcAmCompDefMgr
  3
DesignerAssemblies
 90
     1024
280
     0
281
     0
  0
CLASS
  1
AMCONTEXTMGR
  2
AcAmContextMgr
  3
DesignerAssemblies
 90
     1024
280
     0
281
     0
  0
CLASS
  1
ACAMCONTEXTMODELER
  2
AcAmContextModeler
  3
DesignerAssemblies
 90
     1024
280
     0
281
     0
  0
CLASS
  1
ACMDATADICTIONARY
  2
AcmDataDictionary
  3
"AcmSymBB|Product Description: AutoCAD Mechanical|Company: Autodesk, Inc."
 90
     1024
280
     0
281
     0
  0
CLASS
  1
CATALOGSTATE
  2
AcAmCatalogState
  3
DesignerAssemblies
 90
     1024
280
     0
281
     0
  0
CLASS
  1
ACAMGRCOMPDEFSET
  2
AcAmGrCompDefSet
  3
DesignerAssemblies
 90
     1024
280
     0
281
     0
  0
CLASS
  1
AMDTBROWSERDBTAB
  2
AmdtBrowserDbTab
  3
McadcomServices
 90
     1024
280
     0
281
     0
  0
CLASS
  1
CBROWSERAPPOBJECT
  2
CBrowserAppObject
  3
McadcomServices
 90
     1024
280
     0
281
     0
  0
CLASS
  1
DM_PLACEHOLDER
  2
AcDmSelsetPlaceholder
  3
AcMechDwgViewMgmt
 90
     1024
280
     0
281
     0
  0
CLASS
  1
ACMSTANDARDANSI
  2
AcmStandardANSI
  3
"Amdt_StdImp|Product Description: AutoCAD Mechanical|Company: Autodesk, Inc."
 90
     1024
280
     0
281
     0
  0
CLASS
  1
ACMSURFSTANDARDANSI
  2
AcmSurfTextStdANSI
  3
"Amdt_StdImp|Product Description: AutoCAD Mechanical|Company: Autodesk, Inc."
 90
     1024
280
     0
281
     0
  0
CLASS
  1
ACMFCFSTANDARDANSI
  2
AcmFCFStdANSI
  3
"Amdt_StdImp|Product Description: AutoCAD Mechanical|Company: Autodesk, Inc."
 90
     1024
280
     0
281
     0
  0
CLASS
  1
ACMWELDSTANDARDANSI
  2
AcmWeldingStdANSI
  3
"Amdt_StdImp|Product Description: AutoCAD Mechanical|Company: Autodesk, Inc."
 90
     1024
280
     0
281
     0
  0
CLASS
  1
ACMIDSTANDARDANSI
  2
AcmIdStdANSI
  3
"Amdt_StdImp|Product Description: AutoCAD Mechanical|Company: Autodesk, Inc."
 90
     1024
280
     0
281
     0
  0
CLASS
  1
ACMDATUMSTANDARDANSI
  2
AcmDatumStdANSI
  3
"Amdt_StdImp|Product Description: AutoCAD Mechanical|Company: Autodesk, Inc."
 90
     1024
280
     0
281
     0
  0
CLASS
  1
ACMBOMSTANDARDANSI
  2
AcmBOMStdANSI
  3
"Amdt_StdImp|Product Description: AutoCAD Mechanical|Company: Autodesk, Inc."
 90
     1024
280
     0
281
     0
  0
CLASS
  1
ACMDETAILSTANDARDANSI
  2
AmdtDetailSymStdANSI
  3
"Amdt_StdImp|Product Description: AutoCAD Mechanical|Company: Autodesk, Inc."
 90
     1024
280
     0
281
     0
  0
CLASS
  1
ACMSECTIONSTANDARDANSI
  2
AmdtSectionSymStdANSI
  3
"Amdt_StdImp|Product Description: AutoCAD Mechanical|Company: Autodesk, Inc."
 90
     1024
280
     0
281
     0
  0
CLASS
  1
ACMCENTERLINESTANDARDANSI
  2
AmdtCenterLineStdANSI
  3
"Amdt_StdImp|Product Description: AutoCAD Mechanical|Company: Autodesk, Inc."
 90
     1024
280
     0
281
     0
  0
CLASS
  1
ACMTHREADLINESTANDARDANSI
  2
AmdtThreadLineStdANSI
  3
"Amdt_StdImp|Product Description: AutoCAD Mechanical|Company: Autodesk, Inc."
 90
     1024
280
     0
281
     0
  0
CLASS
  1
ACMNOTESTANDARDANSI
  2
AmdtNoteStdANSI
  3
"Amdt_StdImp|Product Description: AutoCAD Mechanical|Company: Autodesk, Inc."
 90
     1024
280
     0
281
     0
  0
CLASS
  1
ACMTAPERSTANDARDANSI
  2
AcmTaperStdANSI
  3
"Amdt_StdImp|Product Description: AutoCAD Mechanical|Company: Autodesk, Inc."
 90
     1024
280
     0
281
     0
  0
CLASS
  1
ACMANOOTATIONVIEWSTANDARDANSI
  2
AmdtAnViewStdANSI
  3
"Amdt_StdImp|Product Description: AutoCAD Mechanical|Company: Autodesk, Inc."
 90
     1024
280
     0
281
     0
  0
CLASS
  1
ACAMGLAYSTD
  2
AcAmgLayStd
  3
"AmgLay|Product Description: AutoCAD Mechanical|Company: Autodesk, Inc."
 90
     1024
280
     0
281
     0
  0
CLASS
  1
ACAMGDIMSTD
  2
AcAmgDimStd
  3
"AmgDim|Product Description: AutoCAD Mechanical|Company: Autodesk, Inc."
 90
     1024
280
     0
281
     0
  0
CLASS
  1
AMGOBJPROPCFG
  2
AmgObjPropCfg
  3
"AmgLay|Product Description: AutoCAD Mechanical|Company: Autodesk, Inc."
 90
     1025
280
     0
281
     0
  0
CLASS
  1
ACAMGHOLECHARTSTDANSI
  2
AcAmgHoleChartStdANSI
  3
AmgDim|Product Description: AutoCAD Mechanical|Company: Autodesk, Inc.
 90
     1024
280
     0
281
     0
  0
CLASS
  1
ACAMGTITLESTD
  2
AcAmgTitleStd
  3
"AmgTitle|Product Description: AutoCAD Mechanical|Company: Autodesk, Inc."
 90
     4095
280
     0
281
     0
  0
CLASS
  1
AMDTNOTETEMPLATEDB
  2
AmdtNoteTemplateDB
  3
AcmSymBB|Product Description: AutoCAD Mechanical|Company: Autodesk, Inc.
 90
     1024
280
     0
281
     0
  0
CLASS
  1
ACAMGFILTERDAT
  2
AcAmgFilterDat
  3
"AcadM|Product Description: AutoCAD Mechanical|Company: Autodesk, Inc."
 90
     1024
280
     0
281
     0
  0
CLASS
  1
CELLSTYLEMAP
  2
AcDbCellStyleMap
  3
ObjectDBX Classes
 90
     1152
280
     0
281
     0
  0
ENDSEC
  0
SECTION
  2
TABLES
  0
TABLE
  2
VPORT
  5
8
330
0
100
AcDbSymbolTable
 70
     1
  0
VPORT
  5
404
330
8
100
AcDbSymbolTableRecord
100
AcDbViewportTableRecord
  2
*Active
 70
     0
 10
0.0
 20
0.0
 11
1.0
 21
1.0
 12
17.49829587352017
 22
11.49129726326937
 13
0.0
 23
0.0
 14
1.0
 24
1.0
 15
0.0
 25
0.0
 16
0.0
 26
0.0
 36
1.0
 17
0.0
 27
0.0
 37
0.0
 40
22.1644020679674
 41
1.961916461916461
 42
50.0
 43
0.0
 44
0.0
 50
0.0
 51
0.0
 71
     0
 72
   100
 73
     1
 74
     1
 75
     0
 76
     0
 77
     0
 78
     0
281
     0
 65
     0
110
0.0
120
0.0
130
0.0
111
1.0
121
0.0
131
0.0
112
0.0
122
1.0
132
0.0
 79
     0
146
0.0
  0
ENDTAB
  0
TABLE
  2
LTYPE
  5
5
330
0
100
AcDbSymbolTable
 70
    22
  0
LTYPE
  5
13
330
5
100
AcDbSymbolTableRecord
100
AcDbLinetypeTableRecord
  2
ByBlock
 70
     0
  3

 72
    65
 73
     0
 40
0.0
  0
LTYPE
  5
14
330
5
100
AcDbSymbolTableRecord
100
AcDbLinetypeTableRecord
  2
ByLayer
 70
     0
  3

 72
    65
 73
     0
 40
0.0
  0
LTYPE
  5
15
330
5
100
AcDbSymbolTableRecord
100
AcDbLinetypeTableRecord
  2
Continuous
 70
     0
  3
Solid line
 72
    65
 73
     0
 40
0.0
  0
LTYPE
  5
27
330
5
100
AcDbSymbolTableRecord
100
AcDbLinetypeTableRecord
  2
HIDDENNEW00
 70
     0
  3
_ 
 72
    65
 73
     2
 40
0.1875
 49
0.125
 74
     0
 49
-0.0625
 74
     0
  0
LTYPE
  5
28
330
5
100
AcDbSymbolTableRecord
100
AcDbLinetypeTableRecord
  2
HIDDENNEW01
 70
     0
  3
_ 
 72
    65
 73
     2
 40
0.1875
 49
0.125
 74
     0
 49
-0.0625
 74
     0
  0
LTYPE
  5
29
330
5
100
AcDbSymbolTableRecord
100
AcDbLinetypeTableRecord
  2
HIDDEN
 70
     0
  3
_ 
 72
    65
 73
     2
 40
0.1875
 49
0.125
 74
     0
 49
-0.0625
 74
     0
  0
LTYPE
  5
2A
330
5
100
AcDbSymbolTableRecord
100
AcDbLinetypeTableRecord
  2
CENTERLINE
 70
     0
  3
_ 
 72
    65
 73
     4
 40
1.25
 49
1.0
 74
     0
 49
-0.0625
 74
     0
 49
0.125
 74
     0
 49
-0.0625
 74
     0
  0
LTYPE
  5
2B
330
5
100
AcDbSymbolTableRecord
100
AcDbLinetypeTableRecord
  2
PHANTOM
 70
     0
  3
_ 
 72
    65
 73
     6
 40
1.1875
 49
0.75
 74
     0
 49
-0.0625
 74
     0
 49
0.125
 74
     0
 49
-0.0625
 74
     0
 49
0.125
 74
     0
 49
-0.0625
 74
     0
  0
LTYPE
  5
2C
330
5
100
AcDbSymbolTableRecord
100
AcDbLinetypeTableRecord
  2
SHORT_DASH
 70
     0
  3
_ 
 72
    65
 73
     2
 40
0.125
 49
0.0625
 74
     0
 49
-0.0625
 74
     0
  0
LTYPE
  5
2D
330
5
100
AcDbSymbolTableRecord
100
AcDbLinetypeTableRecord
  2
LONG_DASH
 70
     0
  3
_ 
 72
    65
 73
     2
 40
0.375
 49
0.1875
 74
     0
 49
-0.1875
 74
     0
  0
LTYPE
  5
48A
330
5
100
AcDbSymbolTableRecord
100
AcDbLinetypeTableRecord
  2
PHANTOM2
 70
     0
  3
Phantom (.5x) ___ _ _ ___ _ _ ___ _ _ ___ _ _
 72
    65
 73
     6
 40
1.25
 49
0.625
 74
     0
 49
-0.125
 74
     0
 49
0.125
 74
     0
 49
-0.125
 74
     0
 49
0.125
 74
     0
 49
-0.125
 74
     0
  0
LTYPE
  5
48B
330
5
100
AcDbSymbolTableRecord
100
AcDbLinetypeTableRecord
  2
CENTER
 70
     0
  3
Center ____ _ ____ _ ____ _ ____ _ ____ _ ____
 72
    65
 73
     4
 40
2.0
 49
1.25
 74
     0
 49
-0.25
 74
     0
 49
0.25
 74
     0
 49
-0.25
 74
     0
  0
LTYPE
  5
4D4
330
5
100
AcDbSymbolTableRecord
100
AcDbLinetypeTableRecord
  2
AM_ISO02W050
 70
     0
  3
__ __ __ __ __ __ __ __ __ __ __ __ __ __ __
 72
    65
 73
     2
 40
7.5
 49
6.0
 74
     0
 49
-1.5
 74
     0
  0
LTYPE
  5
4D5
330
5
100
AcDbSymbolTableRecord
100
AcDbLinetypeTableRecord
  2
AM_ISO08W050
 70
     0
  3
____ . ____ . ____ . ____ . ____ . ____ . ____
 72
    65
 73
     4
 40
18.0
 49
12.0
 74
     0
 49
-1.5
 74
     0
 49
3.0
 74
     0
 49
-1.5
 74
     0
  0
LTYPE
  5
4D6
330
5
100
AcDbSymbolTableRecord
100
AcDbLinetypeTableRecord
  2
AM_ISO09W050
 70
     0
  3
_____ . . _____ . . _____ . . ____ .. ____
 72
    65
 73
     6
 40
22.5
 49
12.0
 74
     0
 49
-1.5
 74
     0
 49
3.0
 74
     0
 49
-1.5
 74
     0
 49
3.0
 74
     0
 49
-1.5
 74
     0
  0
LTYPE
  5
4D7
330
5
100
AcDbSymbolTableRecord
100
AcDbLinetypeTableRecord
  2
Amconstr
 70
     0
  3
_______________________
 72
    65
 73
     2
 40
9999.0
 49
9999.0
 74
     0
 49
0.0
 74
     0
  0
LTYPE
  5
4D8
330
5
100
AcDbSymbolTableRecord
100
AcDbLinetypeTableRecord
  2
AM_ISO08W050x2
 70
     0
  3
__ . __ . __ . __ . __ . __
 72
    65
 73
     4
 40
9.0
 49
6.0
 74
     0
 49
-0.75
 74
     0
 49
1.5
 74
     0
 49
-0.75
 74
     0
  0
LTYPE
  5
4D9
330
5
100
AcDbSymbolTableRecord
100
AcDbLinetypeTableRecord
  2
AM_ISO02W050x2
 70
     0
  3
 _ _ _ _ _ _ _ _ _ _ _ _
 72
    65
 73
     2
 40
3.75
 49
3.0
 74
     0
 49
-0.75
 74
     0
  0
LTYPE
  5
4DC
330
5
100
AcDbSymbolTableRecord
100
AcDbLinetypeTableRecord
  2
Amzigzag
 70
     0
  3
/\/-/\/-/\/-/\/-/\/-/\/
 72
    65
 73
     2
 40
11.0001
 49
0.0001
 74
     4
 75
   136
340
4DB
 46
0.04
 50
0.0
 44
0.0
 45
0.0
 49
-11.0
 74
     0
  0
LTYPE
  5
4DD
330
5
100
AcDbSymbolTableRecord
100
AcDbLinetypeTableRecord
  2
CENTER2
 70
     0
  3
Center (.5x) ___ _ ___ _ ___ _ ___ _ ___ _ ___
 72
    65
 73
     4
 40
1.125
 49
0.75
 74
     0
 49
-0.125
 74
     0
 49
0.125
 74
     0
 49
-0.125
 74
     0
  0
LTYPE
  5
4DE
330
5
100
AcDbSymbolTableRecord
100
AcDbLinetypeTableRecord
  2
HIDDEN2
 70
     0
  3
Hidden (.5x) _ _ _ _ _ _ _ _ _ _ _ _ _ _ _ _ _
 72
    65
 73
     2
 40
0.1875
 49
0.125
 74
     0
 49
-0.0625
 74
     0
  0
LTYPE
  5
4DF
330
5
100
AcDbSymbolTableRecord
100
AcDbLinetypeTableRecord
  2
Amzigzag2
 70
     0
  3
/\/-/\/-/\/-/\/-/\/-/\/
 72
    65
 73
     2
 40
0.4401
 49
0.0001
 74
     4
 75
   136
340
4DB
 46
0.0016
 50
0.0
 44
0.0
 45
0.0
 49
-0.4400000000000001
 74
     0
  0
LTYPE
  5
4ED
330
5
100
AcDbSymbolTableRecord
100
AcDbLinetypeTableRecord
  2
ACANSTGB
 70
     0
  3
__ . . __ . .
 72
    65
 73
     6
 40
0.35433070866
 49
0.15748031496
 74
     0
 49
-0.03937007874
 74
     0
 49
0.03937007874
 74
     0
 49
-0.03937007874
 74
     0
 49
0.03937007874
 74
     0
 49
-0.03937007874
 74
     0
  0
LTYPE
  5
4EE
330
5
100
AcDbSymbolTableRecord
100
AcDbLinetypeTableRecord
  2
ACANSTGL
 70
     0
  3
_ _ _ _ _
 72
    65
 73
     2
 40
0.11811023622
 49
0.07874015748
 74
     0
 49
-0.03937007874
 74
     0
  0
ENDTAB
  0
TABLE
  2
LAYER
  5
2
330
0
100
AcDbSymbolTable
 70
   182
  0
LAYER
  5
10
102
{ACAD_XDICTIONARY
360
4FC
102
}
330
2
100
AcDbSymbolTableRecord
100
AcDbLayerTableRecord
  2
0
 70
     0
 62
     7
  6
Continuous
370
    -3
390
F
  0
LAYER
  5
26
102
{ACAD_XDICTIONARY
360
4FE
102
}
330
2
100
AcDbSymbolTableRecord
100
AcDbLayerTableRecord
  2
1
 70
     0
 62
     7
  6
Continuous
370
    -3
390
F
  0
LAYER
  5
2E
102
{ACAD_XDICTIONARY
360
500
102
}
330
2
100
AcDbSymbolTableRecord
100
AcDbLayerTableRecord
  2
2
 70
     0
 62
     7
  6
Continuous
370
    -3
390
F
  0
LAYER
  5
2F
102
{ACAD_XDICTIONARY
360
502
102
}
330
2
100
AcDbSymbolTableRecord
100
AcDbLayerTableRecord
  2
3
 70
     0
 62
     7
  6
Continuous
370
    -3
390
F
  0
LAYER
  5
30
102
{ACAD_XDICTIONARY
360
504
102
}
330
2
100
AcDbSymbolTableRecord
100
AcDbLayerTableRecord
  2
4
 70
     0
 62
     7
  6
Continuous
370
    -3
390
F
  0
LAYER
  5
31
102
{ACAD_XDICTIONARY
360
506
102
}
330
2
100
AcDbSymbolTableRecord
100
AcDbLayerTableRecord
  2
5
 70
     0
 62
     7
  6
Continuous
370
    -3
390
F
  0
LAYER
  5
32
102
{ACAD_XDICTIONARY
360
508
102
}
330
2
100
AcDbSymbolTableRecord
100
AcDbLayerTableRecord
  2
6
 70
     0
 62
     7
  6
Continuous
370
    -3
390
F
  0
LAYER
  5
33
102
{ACAD_XDICTIONARY
360
50A
102
}
330
2
100
AcDbSymbolTableRecord
100
AcDbLayerTableRecord
  2
7
 70
     0
 62
     7
  6
Continuous
370
    -3
390
F
  0
LAYER
  5
34
102
{ACAD_XDICTIONARY
360
50C
102
}
330
2
100
AcDbSymbolTableRecord
100
AcDbLayerTableRecord
  2
8
 70
     0
 62
     7
  6
Continuous
370
    -3
390
F
  0
LAYER
  5
35
102
{ACAD_XDICTIONARY
360
50E
102
}
330
2
100
AcDbSymbolTableRecord
100
AcDbLayerTableRecord
  2
9
 70
     0
 62
     7
  6
Continuous
370
    -3
390
F
  0
LAYER
  5
36
102
{ACAD_XDICTIONARY
360
510
102
}
330
2
100
AcDbSymbolTableRecord
100
AcDbLayerTableRecord
  2
10
 70
     0
 62
     7
  6
Continuous
370
    -3
390
F
  0
LAYER
  5
37
102
{ACAD_XDICTIONARY
360
512
102
}
330
2
100
AcDbSymbolTableRecord
100
AcDbLayerTableRecord
  2
11
 70
     0
 62
     7
  6
Continuous
370
    -3
390
F
  0
LAYER
  5
38
102
{ACAD_XDICTIONARY
360
514
102
}
330
2
100
AcDbSymbolTableRecord
100
AcDbLayerTableRecord
  2
12
 70
     0
 62
     7
  6
Continuous
370
    -3
390
F
  0
LAYER
  5
39
102
{ACAD_XDICTIONARY
360
516
102
}
330
2
100
AcDbSymbolTableRecord
100
AcDbLayerTableRecord
  2
13
 70
     0
 62
     7
  6
Continuous
370
    -3
390
F
  0
LAYER
  5
3A
102
{ACAD_XDICTIONARY
360
518
102
}
330
2
100
AcDbSymbolTableRecord
100
AcDbLayerTableRecord
  2
14
 70
     0
 62
     7
  6
Continuous
370
    -3
390
F
  0
LAYER
  5
3B
102
{ACAD_XDICTIONARY
360
51A
102
}
330
2
100
AcDbSymbolTableRecord
100
AcDbLayerTableRecord
  2
15
 70
     0
 62
     7
  6
Continuous
370
    -3
390
F
  0
LAYER
  5
3C
102
{ACAD_XDICTIONARY
360
51C
102
}
330
2
100
AcDbSymbolTableRecord
100
AcDbLayerTableRecord
  2
16
 70
     0
 62
     7
  6
Continuous
370
    -3
390
F
  0
LAYER
  5
3D
102
{ACAD_XDICTIONARY
360
51E
102
}
330
2
100
AcDbSymbolTableRecord
100
AcDbLayerTableRecord
  2
17
 70
     0
 62
     7
  6
Continuous
370
    -3
390
F
  0
LAYER
  5
3E
102
{ACAD_XDICTIONARY
360
520
102
}
330
2
100
AcDbSymbolTableRecord
100
AcDbLayerTableRecord
  2
18
 70
     0
 62
     7
  6
Continuous
370
    -3
390
F
  0
LAYER
  5
3F
102
{ACAD_XDICTIONARY
360
522
102
}
330
2
100
AcDbSymbolTableRecord
100
AcDbLayerTableRecord
  2
19
 70
     0
 62
     7
  6
Continuous
370
    -3
390
F
  0
LAYER
  5
40
102
{ACAD_XDICTIONARY
360
524
102
}
330
2
100
AcDbSymbolTableRecord
100
AcDbLayerTableRecord
  2
20
 70
     0
 62
     7
  6
Continuous
370
    -3
390
F
  0
LAYER
  5
41
102
{ACAD_XDICTIONARY
360
526
102
}
330
2
100
AcDbSymbolTableRecord
100
AcDbLayerTableRecord
  2
21
 70
     0
 62
     7
  6
Continuous
370
    -3
390
F
  0
LAYER
  5
42
102
{ACAD_XDICTIONARY
360
528
102
}
330
2
100
AcDbSymbolTableRecord
100
AcDbLayerTableRecord
  2
22
 70
     0
 62
     7
  6
Continuous
370
    -3
390
F
  0
LAYER
  5
43
102
{ACAD_XDICTIONARY
360
52A
102
}
330
2
100
AcDbSymbolTableRecord
100
AcDbLayerTableRecord
  2
23
 70
     0
 62
     7
  6
Continuous
370
    -3
390
F
  0
LAYER
  5
44
102
{ACAD_XDICTIONARY
360
52C
102
}
330
2
100
AcDbSymbolTableRecord
100
AcDbLayerTableRecord
  2
24
 70
     0
 62
     7
  6
Continuous
370
    -3
390
F
  0
LAYER
  5
45
102
{ACAD_XDICTIONARY
360
52E
102
}
330
2
100
AcDbSymbolTableRecord
100
AcDbLayerTableRecord
  2
25
 70
     0
 62
     7
  6
Continuous
370
    -3
390
F
  0
LAYER
  5
46
102
{ACAD_XDICTIONARY
360
530
102
}
330
2
100
AcDbSymbolTableRecord
100
AcDbLayerTableRecord
  2
26
 70
     0
 62
     7
  6
Continuous
370
    -3
390
F
  0
LAYER
  5
47
102
{ACAD_XDICTIONARY
360
532
102
}
330
2
100
AcDbSymbolTableRecord
100
AcDbLayerTableRecord
  2
27
 70
     0
 62
     7
  6
Continuous
370
    -3
390
F
  0
LAYER
  5
48
102
{ACAD_XDICTIONARY
360
534
102
}
330
2
100
AcDbSymbolTableRecord
100
AcDbLayerTableRecord
  2
28
 70
     0
 62
     7
  6
Continuous
370
    -3
390
F
  0
LAYER
  5
49
102
{ACAD_XDICTIONARY
360
536
102
}
330
2
100
AcDbSymbolTableRecord
100
AcDbLayerTableRecord
  2
29
 70
     0
 62
     7
  6
Continuous
370
    -3
390
F
  0
LAYER
  5
4A
102
{ACAD_XDICTIONARY
360
538
102
}
330
2
100
AcDbSymbolTableRecord
100
AcDbLayerTableRecord
  2
30
 70
     0
 62
     7
  6
Continuous
370
    -3
390
F
  0
LAYER
  5
4B
102
{ACAD_XDICTIONARY
360
53A
102
}
330
2
100
AcDbSymbolTableRecord
100
AcDbLayerTableRecord
  2
31
 70
     0
 62
     7
  6
Continuous
370
    -3
390
F
  0
LAYER
  5
4C
102
{ACAD_XDICTIONARY
360
53C
102
}
330
2
100
AcDbSymbolTableRecord
100
AcDbLayerTableRecord
  2
32
 70
     0
 62
     7
  6
Continuous
370
    -3
390
F
  0
LAYER
  5
4D
102
{ACAD_XDICTIONARY
360
53E
102
}
330
2
100
AcDbSymbolTableRecord
100
AcDbLayerTableRecord
  2
33
 70
     0
 62
     7
  6
Continuous
370
    -3
390
F
  0
LAYER
  5
4E
102
{ACAD_XDICTIONARY
360
540
102
}
330
2
100
AcDbSymbolTableRecord
100
AcDbLayerTableRecord
  2
34
 70
     0
 62
     7
  6
Continuous
370
    -3
390
F
  0
LAYER
  5
4F
102
{ACAD_XDICTIONARY
360
542
102
}
330
2
100
AcDbSymbolTableRecord
100
AcDbLayerTableRecord
  2
35
 70
     0
 62
     7
  6
Continuous
370
    -3
390
F
  0
LAYER
  5
50
102
{ACAD_XDICTIONARY
360
544
102
}
330
2
100
AcDbSymbolTableRecord
100
AcDbLayerTableRecord
  2
36
 70
     0
 62
     7
  6
Continuous
370
    -3
390
F
  0
LAYER
  5
51
102
{ACAD_XDICTIONARY
360
546
102
}
330
2
100
AcDbSymbolTableRecord
100
AcDbLayerTableRecord
  2
37
 70
     0
 62
     7
  6
Continuous
370
    -3
390
F
  0
LAYER
  5
52
102
{ACAD_XDICTIONARY
360
548
102
}
330
2
100
AcDbSymbolTableRecord
100
AcDbLayerTableRecord
  2
38
 70
     0
 62
     7
  6
Continuous
370
    -3
390
F
  0
LAYER
  5
53
102
{ACAD_XDICTIONARY
360
54A
102
}
330
2
100
AcDbSymbolTableRecord
100
AcDbLayerTableRecord
  2
39
 70
     0
 62
     7
  6
Continuous
370
    -3
390
F
  0
LAYER
  5
54
102
{ACAD_XDICTIONARY
360
54C
102
}
330
2
100
AcDbSymbolTableRecord
100
AcDbLayerTableRecord
  2
40
 70
     0
 62
     7
  6
Continuous
370
    -3
390
F
  0
LAYER
  5
55
102
{ACAD_XDICTIONARY
360
54E
102
}
330
2
100
AcDbSymbolTableRecord
100
AcDbLayerTableRecord
  2
41
 70
     0
 62
     7
  6
Continuous
370
    -3
390
F
  0
LAYER
  5
56
102
{ACAD_XDICTIONARY
360
550
102
}
330
2
100
AcDbSymbolTableRecord
100
AcDbLayerTableRecord
  2
42
 70
     0
 62
     7
  6
Continuous
370
    -3
390
F
  0
LAYER
  5
57
102
{ACAD_XDICTIONARY
360
552
102
}
330
2
100
AcDbSymbolTableRecord
100
AcDbLayerTableRecord
  2
43
 70
     0
 62
     7
  6
Continuous
370
    -3
390
F
  0
LAYER
  5
58
102
{ACAD_XDICTIONARY
360
554
102
}
330
2
100
AcDbSymbolTableRecord
100
AcDbLayerTableRecord
  2
44
 70
     0
 62
     7
  6
Continuous
370
    -3
390
F
  0
LAYER
  5
59
102
{ACAD_XDICTIONARY
360
556
102
}
330
2
100
AcDbSymbolTableRecord
100
AcDbLayerTableRecord
  2
45
 70
     0
 62
     7
  6
Continuous
370
    -3
390
F
  0
LAYER
  5
5A
102
{ACAD_XDICTIONARY
360
558
102
}
330
2
100
AcDbSymbolTableRecord
100
AcDbLayerTableRecord
  2
46
 70
     0
 62
     7
  6
Continuous
370
    -3
390
F
  0
LAYER
  5
5B
102
{ACAD_XDICTIONARY
360
55A
102
}
330
2
100
AcDbSymbolTableRecord
100
AcDbLayerTableRecord
  2
47
 70
     0
 62
     7
  6
Continuous
370
    -3
390
F
  0
LAYER
  5
5C
102
{ACAD_XDICTIONARY
360
55C
102
}
330
2
100
AcDbSymbolTableRecord
100
AcDbLayerTableRecord
  2
48
 70
     0
 62
     7
  6
Continuous
370
    -3
390
F
  0
LAYER
  5
5D
102
{ACAD_XDICTIONARY
360
55E
102
}
330
2
100
AcDbSymbolTableRecord
100
AcDbLayerTableRecord
  2
49
 70
     0
 62
     7
  6
Continuous
370
    -3
390
F
  0
LAYER
  5
5E
102
{ACAD_XDICTIONARY
360
560
102
}
330
2
100
AcDbSymbolTableRecord
100
AcDbLayerTableRecord
  2
50
 70
     0
 62
     7
  6
Continuous
370
    -3
390
F
  0
LAYER
  5
5F
102
{ACAD_XDICTIONARY
360
562
102
}
330
2
100
AcDbSymbolTableRecord
100
AcDbLayerTableRecord
  2
51
 70
     0
 62
     7
  6
Continuous
370
    -3
390
F
  0
LAYER
  5
60
102
{ACAD_XDICTIONARY
360
564
102
}
330
2
100
AcDbSymbolTableRecord
100
AcDbLayerTableRecord
  2
52
 70
     0
 62
     7
  6
Continuous
370
    -3
390
F
  0
LAYER
  5
61
102
{ACAD_XDICTIONARY
360
566
102
}
330
2
100
AcDbSymbolTableRecord
100
AcDbLayerTableRecord
  2
53
 70
     0
 62
     7
  6
Continuous
370
    -3
390
F
  0
LAYER
  5
62
102
{ACAD_XDICTIONARY
360
568
102
}
330
2
100
AcDbSymbolTableRecord
100
AcDbLayerTableRecord
  2
54
 70
     0
 62
     7
  6
Continuous
370
    -3
390
F
  0
LAYER
  5
63
102
{ACAD_XDICTIONARY
360
56A
102
}
330
2
100
AcDbSymbolTableRecord
100
AcDbLayerTableRecord
  2
55
 70
     0
 62
     7
  6
Continuous
370
    -3
390
F
  0
LAYER
  5
64
102
{ACAD_XDICTIONARY
360
56C
102
}
330
2
100
AcDbSymbolTableRecord
100
AcDbLayerTableRecord
  2
56
 70
     0
 62
     7
  6
Continuous
370
    -3
390
F
  0
LAYER
  5
65
102
{ACAD_XDICTIONARY
360
56E
102
}
330
2
100
AcDbSymbolTableRecord
100
AcDbLayerTableRecord
  2
57
 70
     0
 62
     7
  6
Continuous
370
    -3
390
F
  0
LAYER
  5
66
102
{ACAD_XDICTIONARY
360
570
102
}
330
2
100
AcDbSymbolTableRecord
100
AcDbLayerTableRecord
  2
58
 70
     0
 62
     7
  6
Continuous
370
    -3
390
F
  0
LAYER
  5
67
102
{ACAD_XDICTIONARY
360
572
102
}
330
2
100
AcDbSymbolTableRecord
100
AcDbLayerTableRecord
  2
59
 70
     0
 62
     7
  6
Continuous
370
    -3
390
F
  0
LAYER
  5
68
102
{ACAD_XDICTIONARY
360
574
102
}
330
2
100
AcDbSymbolTableRecord
100
AcDbLayerTableRecord
  2
60
 70
     0
 62
     7
  6
Continuous
370
    -3
390
F
  0
LAYER
  5
69
102
{ACAD_XDICTIONARY
360
576
102
}
330
2
100
AcDbSymbolTableRecord
100
AcDbLayerTableRecord
  2
61
 70
     0
 62
     7
  6
Continuous
370
    -3
390
F
  0
LAYER
  5
6A
102
{ACAD_XDICTIONARY
360
578
102
}
330
2
100
AcDbSymbolTableRecord
100
AcDbLayerTableRecord
  2
62
 70
     0
 62
     7
  6
Continuous
370
    -3
390
F
  0
LAYER
  5
6B
102
{ACAD_XDICTIONARY
360
57A
102
}
330
2
100
AcDbSymbolTableRecord
100
AcDbLayerTableRecord
  2
63
 70
     0
 62
     7
  6
Continuous
370
    -3
390
F
  0
LAYER
  5
6C
102
{ACAD_XDICTIONARY
360
57C
102
}
330
2
100
AcDbSymbolTableRecord
100
AcDbLayerTableRecord
  2
64
 70
     0
 62
     7
  6
Continuous
370
    -3
390
F
  0
LAYER
  5
6D
102
{ACAD_XDICTIONARY
360
57E
102
}
330
2
100
AcDbSymbolTableRecord
100
AcDbLayerTableRecord
  2
65
 70
     0
 62
     7
  6
Continuous
370
    -3
390
F
  0
LAYER
  5
6E
102
{ACAD_XDICTIONARY
360
580
102
}
330
2
100
AcDbSymbolTableRecord
100
AcDbLayerTableRecord
  2
66
 70
     0
 62
     7
  6
Continuous
370
    -3
390
F
  0
LAYER
  5
6F
102
{ACAD_XDICTIONARY
360
582
102
}
330
2
100
AcDbSymbolTableRecord
100
AcDbLayerTableRecord
  2
67
 70
     0
 62
     7
  6
Continuous
370
    -3
390
F
  0
LAYER
  5
70
102
{ACAD_XDICTIONARY
360
584
102
}
330
2
100
AcDbSymbolTableRecord
100
AcDbLayerTableRecord
  2
68
 70
     0
 62
     7
  6
Continuous
370
    -3
390
F
  0
LAYER
  5
71
102
{ACAD_XDICTIONARY
360
586
102
}
330
2
100
AcDbSymbolTableRecord
100
AcDbLayerTableRecord
  2
69
 70
     0
 62
     7
  6
Continuous
370
    -3
390
F
  0
LAYER
  5
72
102
{ACAD_XDICTIONARY
360
588
102
}
330
2
100
AcDbSymbolTableRecord
100
AcDbLayerTableRecord
  2
70
 70
     0
 62
     7
  6
Continuous
370
    -3
390
F
  0
LAYER
  5
73
102
{ACAD_XDICTIONARY
360
58A
102
}
330
2
100
AcDbSymbolTableRecord
100
AcDbLayerTableRecord
  2
71
 70
     0
 62
     7
  6
Continuous
370
    -3
390
F
  0
LAYER
  5
74
102
{ACAD_XDICTIONARY
360
58C
102
}
330
2
100
AcDbSymbolTableRecord
100
AcDbLayerTableRecord
  2
72
 70
     0
 62
     7
  6
Continuous
370
    -3
390
F
  0
LAYER
  5
75
102
{ACAD_XDICTIONARY
360
58E
102
}
330
2
100
AcDbSymbolTableRecord
100
AcDbLayerTableRecord
  2
73
 70
     0
 62
     7
  6
Continuous
370
    -3
390
F
  0
LAYER
  5
76
102
{ACAD_XDICTIONARY
360
590
102
}
330
2
100
AcDbSymbolTableRecord
100
AcDbLayerTableRecord
  2
74
 70
     0
 62
     7
  6
Continuous
370
    -3
390
F
  0
LAYER
  5
77
102
{ACAD_XDICTIONARY
360
592
102
}
330
2
100
AcDbSymbolTableRecord
100
AcDbLayerTableRecord
  2
75
 70
     0
 62
     7
  6
Continuous
370
    -3
390
F
  0
LAYER
  5
78
102
{ACAD_XDICTIONARY
360
594
102
}
330
2
100
AcDbSymbolTableRecord
100
AcDbLayerTableRecord
  2
76
 70
     0
 62
     7
  6
Continuous
370
    -3
390
F
  0
LAYER
  5
79
102
{ACAD_XDICTIONARY
360
596
102
}
330
2
100
AcDbSymbolTableRecord
100
AcDbLayerTableRecord
  2
77
 70
     0
 62
     7
  6
Continuous
370
    -3
390
F
  0
LAYER
  5
7A
102
{ACAD_XDICTIONARY
360
598
102
}
330
2
100
AcDbSymbolTableRecord
100
AcDbLayerTableRecord
  2
78
 70
     0
 62
     7
  6
Continuous
370
    -3
390
F
  0
LAYER
  5
7B
102
{ACAD_XDICTIONARY
360
59A
102
}
330
2
100
AcDbSymbolTableRecord
100
AcDbLayerTableRecord
  2
79
 70
     0
 62
     7
  6
Continuous
370
    -3
390
F
  0
LAYER
  5
7C
102
{ACAD_XDICTIONARY
360
59C
102
}
330
2
100
AcDbSymbolTableRecord
100
AcDbLayerTableRecord
  2
80
 70
     0
 62
     7
  6
Continuous
370
    -3
390
F
  0
LAYER
  5
7D
102
{ACAD_XDICTIONARY
360
59E
102
}
330
2
100
AcDbSymbolTableRecord
100
AcDbLayerTableRecord
  2
81
 70
     0
 62
     7
  6
Continuous
370
    -3
390
F
  0
LAYER
  5
7E
102
{ACAD_XDICTIONARY
360
5A0
102
}
330
2
100
AcDbSymbolTableRecord
100
AcDbLayerTableRecord
  2
82
 70
     0
 62
     7
  6
Continuous
370
    -3
390
F
  0
LAYER
  5
7F
102
{ACAD_XDICTIONARY
360
5A2
102
}
330
2
100
AcDbSymbolTableRecord
100
AcDbLayerTableRecord
  2
83
 70
     0
 62
     7
  6
Continuous
370
    -3
390
F
  0
LAYER
  5
80
102
{ACAD_XDICTIONARY
360
5A4
102
}
330
2
100
AcDbSymbolTableRecord
100
AcDbLayerTableRecord
  2
84
 70
     0
 62
     7
  6
Continuous
370
    -3
390
F
  0
LAYER
  5
81
102
{ACAD_XDICTIONARY
360
5A6
102
}
330
2
100
AcDbSymbolTableRecord
100
AcDbLayerTableRecord
  2
85
 70
     0
 62
     7
  6
Continuous
370
    -3
390
F
  0
LAYER
  5
82
102
{ACAD_XDICTIONARY
360
5A8
102
}
330
2
100
AcDbSymbolTableRecord
100
AcDbLayerTableRecord
  2
86
 70
     0
 62
     7
  6
Continuous
370
    -3
390
F
  0
LAYER
  5
83
102
{ACAD_XDICTIONARY
360
5AA
102
}
330
2
100
AcDbSymbolTableRecord
100
AcDbLayerTableRecord
  2
87
 70
     0
 62
     7
  6
Continuous
370
    -3
390
F
  0
LAYER
  5
84
102
{ACAD_XDICTIONARY
360
5AC
102
}
330
2
100
AcDbSymbolTableRecord
100
AcDbLayerTableRecord
  2
88
 70
     0
 62
     7
  6
Continuous
370
    -3
390
F
  0
LAYER
  5
85
102
{ACAD_XDICTIONARY
360
5AE
102
}
330
2
100
AcDbSymbolTableRecord
100
AcDbLayerTableRecord
  2
89
 70
     0
 62
     7
  6
Continuous
370
    -3
390
F
  0
LAYER
  5
86
102
{ACAD_XDICTIONARY
360
5B0
102
}
330
2
100
AcDbSymbolTableRecord
100
AcDbLayerTableRecord
  2
90
 70
     0
 62
     7
  6
Continuous
370
    -3
390
F
  0
LAYER
  5
87
102
{ACAD_XDICTIONARY
360
5B2
102
}
330
2
100
AcDbSymbolTableRecord
100
AcDbLayerTableRecord
  2
91
 70
     0
 62
     7
  6
Continuous
370
    -3
390
F
  0
LAYER
  5
88
102
{ACAD_XDICTIONARY
360
5B4
102
}
330
2
100
AcDbSymbolTableRecord
100
AcDbLayerTableRecord
  2
92
 70
     0
 62
     7
  6
Continuous
370
    -3
390
F
  0
LAYER
  5
89
102
{ACAD_XDICTIONARY
360
5B6
102
}
330
2
100
AcDbSymbolTableRecord
100
AcDbLayerTableRecord
  2
93
 70
     0
 62
     7
  6
Continuous
370
    -3
390
F
  0
LAYER
  5
8A
102
{ACAD_XDICTIONARY
360
5B8
102
}
330
2
100
AcDbSymbolTableRecord
100
AcDbLayerTableRecord
  2
94
 70
     0
 62
     7
  6
Continuous
370
    -3
390
F
  0
LAYER
  5
8B
102
{ACAD_XDICTIONARY
360
5BA
102
}
330
2
100
AcDbSymbolTableRecord
100
AcDbLayerTableRecord
  2
95
 70
     0
 62
     7
  6
Continuous
370
    -3
390
F
  0
LAYER
  5
8C
102
{ACAD_XDICTIONARY
360
5BC
102
}
330
2
100
AcDbSymbolTableRecord
100
AcDbLayerTableRecord
  2
96
 70
     0
 62
     7
  6
Continuous
370
    -3
390
F
  0
LAYER
  5
8D
102
{ACAD_XDICTIONARY
360
5BE
102
}
330
2
100
AcDbSymbolTableRecord
100
AcDbLayerTableRecord
  2
97
 70
     0
 62
     7
  6
Continuous
370
    -3
390
F
  0
LAYER
  5
8E
102
{ACAD_XDICTIONARY
360
5C0
102
}
330
2
100
AcDbSymbolTableRecord
100
AcDbLayerTableRecord
  2
98
 70
     0
 62
     7
  6
Continuous
370
    -3
390
F
  0
LAYER
  5
8F
102
{ACAD_XDICTIONARY
360
5C2
102
}
330
2
100
AcDbSymbolTableRecord
100
AcDbLayerTableRecord
  2
99
 70
     0
 62
     7
  6
Continuous
370
    -3
390
F
  0
LAYER
  5
90
102
{ACAD_XDICTIONARY
360
5C4
102
}
330
2
100
AcDbSymbolTableRecord
100
AcDbLayerTableRecord
  2
100
 70
     0
 62
     7
  6
Continuous
370
    -3
390
F
  0
LAYER
  5
91
102
{ACAD_XDICTIONARY
360
5C6
102
}
330
2
100
AcDbSymbolTableRecord
100
AcDbLayerTableRecord
  2
101
 70
     0
 62
     7
  6
Continuous
370
    -3
390
F
  0
LAYER
  5
92
102
{ACAD_XDICTIONARY
360
5C8
102
}
330
2
100
AcDbSymbolTableRecord
100
AcDbLayerTableRecord
  2
102
 70
     0
 62
     7
  6
Continuous
370
    -3
390
F
  0
LAYER
  5
93
102
{ACAD_XDICTIONARY
360
5CA
102
}
330
2
100
AcDbSymbolTableRecord
100
AcDbLayerTableRecord
  2
103
 70
     0
 62
     7
  6
Continuous
370
    -3
390
F
  0
LAYER
  5
94
102
{ACAD_XDICTIONARY
360
5CC
102
}
330
2
100
AcDbSymbolTableRecord
100
AcDbLayerTableRecord
  2
104
 70
     0
 62
     7
  6
Continuous
370
    -3
390
F
  0
LAYER
  5
95
102
{ACAD_XDICTIONARY
360
5CE
102
}
330
2
100
AcDbSymbolTableRecord
100
AcDbLayerTableRecord
  2
105
 70
     0
 62
     7
  6
Continuous
370
    -3
390
F
  0
LAYER
  5
96
102
{ACAD_XDICTIONARY
360
5D0
102
}
330
2
100
AcDbSymbolTableRecord
100
AcDbLayerTableRecord
  2
106
 70
     0
 62
     7
  6
Continuous
370
    -3
390
F
  0
LAYER
  5
97
102
{ACAD_XDICTIONARY
360
5D2
102
}
330
2
100
AcDbSymbolTableRecord
100
AcDbLayerTableRecord
  2
107
 70
     0
 62
     7
  6
Continuous
370
    -3
390
F
  0
LAYER
  5
98
102
{ACAD_XDICTIONARY
360
5D4
102
}
330
2
100
AcDbSymbolTableRecord
100
AcDbLayerTableRecord
  2
108
 70
     0
 62
     7
  6
Continuous
370
    -3
390
F
  0
LAYER
  5
99
102
{ACAD_XDICTIONARY
360
5D6
102
}
330
2
100
AcDbSymbolTableRecord
100
AcDbLayerTableRecord
  2
109
 70
     0
 62
     7
  6
Continuous
370
    -3
390
F
  0
LAYER
  5
9A
102
{ACAD_XDICTIONARY
360
5D8
102
}
330
2
100
AcDbSymbolTableRecord
100
AcDbLayerTableRecord
  2
110
 70
     0
 62
     7
  6
Continuous
370
    -3
390
F
  0
LAYER
  5
9B
102
{ACAD_XDICTIONARY
360
5DA
102
}
330
2
100
AcDbSymbolTableRecord
100
AcDbLayerTableRecord
  2
111
 70
     0
 62
     7
  6
Continuous
370
    -3
390
F
  0
LAYER
  5
9C
102
{ACAD_XDICTIONARY
360
5DC
102
}
330
2
100
AcDbSymbolTableRecord
100
AcDbLayerTableRecord
  2
112
 70
     0
 62
     7
  6
Continuous
370
    -3
390
F
  0
LAYER
  5
9D
102
{ACAD_XDICTIONARY
360
5DE
102
}
330
2
100
AcDbSymbolTableRecord
100
AcDbLayerTableRecord
  2
113
 70
     0
 62
     7
  6
Continuous
370
    -3
390
F
  0
LAYER
  5
9E
102
{ACAD_XDICTIONARY
360
5E0
102
}
330
2
100
AcDbSymbolTableRecord
100
AcDbLayerTableRecord
  2
114
 70
     0
 62
     7
  6
Continuous
370
    -3
390
F
  0
LAYER
  5
9F
102
{ACAD_XDICTIONARY
360
5E2
102
}
330
2
100
AcDbSymbolTableRecord
100
AcDbLayerTableRecord
  2
115
 70
     0
 62
     7
  6
Continuous
370
    -3
390
F
  0
LAYER
  5
A0
102
{ACAD_XDICTIONARY
360
5E4
102
}
330
2
100
AcDbSymbolTableRecord
100
AcDbLayerTableRecord
  2
116
 70
     0
 62
     7
  6
Continuous
370
    -3
390
F
  0
LAYER
  5
A1
102
{ACAD_XDICTIONARY
360
5E6
102
}
330
2
100
AcDbSymbolTableRecord
100
AcDbLayerTableRecord
  2
117
 70
     0
 62
     7
  6
Continuous
370
    -3
390
F
  0
LAYER
  5
A2
102
{ACAD_XDICTIONARY
360
5E8
102
}
330
2
100
AcDbSymbolTableRecord
100
AcDbLayerTableRecord
  2
118
 70
     0
 62
     7
  6
Continuous
370
    -3
390
F
  0
LAYER
  5
A3
102
{ACAD_XDICTIONARY
360
5EA
102
}
330
2
100
AcDbSymbolTableRecord
100
AcDbLayerTableRecord
  2
119
 70
     0
 62
     7
  6
Continuous
370
    -3
390
F
  0
LAYER
  5
A4
102
{ACAD_XDICTIONARY
360
5EC
102
}
330
2
100
AcDbSymbolTableRecord
100
AcDbLayerTableRecord
  2
120
 70
     0
 62
     7
  6
Continuous
370
    -3
390
F
  0
LAYER
  5
A5
102
{ACAD_XDICTIONARY
360
5EE
102
}
330
2
100
AcDbSymbolTableRecord
100
AcDbLayerTableRecord
  2
121
 70
     0
 62
     7
  6
Continuous
370
    -3
390
F
  0
LAYER
  5
A6
102
{ACAD_XDICTIONARY
360
5F0
102
}
330
2
100
AcDbSymbolTableRecord
100
AcDbLayerTableRecord
  2
122
 70
     0
 62
     7
  6
Continuous
370
    -3
390
F
  0
LAYER
  5
A7
102
{ACAD_XDICTIONARY
360
5F2
102
}
330
2
100
AcDbSymbolTableRecord
100
AcDbLayerTableRecord
  2
123
 70
     0
 62
     7
  6
Continuous
370
    -3
390
F
  0
LAYER
  5
A8
102
{ACAD_XDICTIONARY
360
5F4
102
}
330
2
100
AcDbSymbolTableRecord
100
AcDbLayerTableRecord
  2
124
 70
     0
 62
     7
  6
Continuous
370
    -3
390
F
  0
LAYER
  5
A9
102
{ACAD_XDICTIONARY
360
5F6
102
}
330
2
100
AcDbSymbolTableRecord
100
AcDbLayerTableRecord
  2
125
 70
     0
 62
     7
  6
Continuous
370
    -3
390
F
  0
LAYER
  5
AA
102
{ACAD_XDICTIONARY
360
5F8
102
}
330
2
100
AcDbSymbolTableRecord
100
AcDbLayerTableRecord
  2
126
 70
     0
 62
     7
  6
Continuous
370
    -3
390
F
  0
LAYER
  5
AB
102
{ACAD_XDICTIONARY
360
5FA
102
}
330
2
100
AcDbSymbolTableRecord
100
AcDbLayerTableRecord
  2
127
 70
     0
 62
     7
  6
Continuous
370
    -3
390
F
  0
LAYER
  5
AC
102
{ACAD_XDICTIONARY
360
5FC
102
}
330
2
100
AcDbSymbolTableRecord
100
AcDbLayerTableRecord
  2
128
 70
     0
 62
     7
  6
Continuous
370
    -3
390
F
  0
LAYER
  5
AD
102
{ACAD_XDICTIONARY
360
5FE
102
}
330
2
100
AcDbSymbolTableRecord
100
AcDbLayerTableRecord
  2
129
 70
     0
 62
     7
  6
Continuous
370
    -3
390
F
  0
LAYER
  5
AE
102
{ACAD_XDICTIONARY
360
600
102
}
330
2
100
AcDbSymbolTableRecord
100
AcDbLayerTableRecord
  2
130
 70
     0
 62
     7
  6
Continuous
370
    -3
390
F
  0
LAYER
  5
AF
102
{ACAD_XDICTIONARY
360
602
102
}
330
2
100
AcDbSymbolTableRecord
100
AcDbLayerTableRecord
  2
131
 70
     0
 62
     7
  6
Continuous
370
    -3
390
F
  0
LAYER
  5
B0
102
{ACAD_XDICTIONARY
360
604
102
}
330
2
100
AcDbSymbolTableRecord
100
AcDbLayerTableRecord
  2
132
 70
     0
 62
     7
  6
Continuous
370
    -3
390
F
  0
LAYER
  5
B1
102
{ACAD_XDICTIONARY
360
606
102
}
330
2
100
AcDbSymbolTableRecord
100
AcDbLayerTableRecord
  2
133
 70
     0
 62
     7
  6
Continuous
370
    -3
390
F
  0
LAYER
  5
B2
102
{ACAD_XDICTIONARY
360
608
102
}
330
2
100
AcDbSymbolTableRecord
100
AcDbLayerTableRecord
  2
134
 70
     0
 62
     7
  6
Continuous
370
    -3
390
F
  0
LAYER
  5
B3
102
{ACAD_XDICTIONARY
360
60A
102
}
330
2
100
AcDbSymbolTableRecord
100
AcDbLayerTableRecord
  2
135
 70
     0
 62
     7
  6
Continuous
370
    -3
390
F
  0
LAYER
  5
B4
102
{ACAD_XDICTIONARY
360
60C
102
}
330
2
100
AcDbSymbolTableRecord
100
AcDbLayerTableRecord
  2
136
 70
     0
 62
     7
  6
Continuous
370
    -3
390
F
  0
LAYER
  5
B5
102
{ACAD_XDICTIONARY
360
60E
102
}
330
2
100
AcDbSymbolTableRecord
100
AcDbLayerTableRecord
  2
137
 70
     0
 62
     7
  6
Continuous
370
    -3
390
F
  0
LAYER
  5
B6
102
{ACAD_XDICTIONARY
360
610
102
}
330
2
100
AcDbSymbolTableRecord
100
AcDbLayerTableRecord
  2
138
 70
     0
 62
     7
  6
Continuous
370
    -3
390
F
  0
LAYER
  5
B7
102
{ACAD_XDICTIONARY
360
612
102
}
330
2
100
AcDbSymbolTableRecord
100
AcDbLayerTableRecord
  2
139
 70
     0
 62
     7
  6
Continuous
370
    -3
390
F
  0
LAYER
  5
B8
102
{ACAD_XDICTIONARY
360
614
102
}
330
2
100
AcDbSymbolTableRecord
100
AcDbLayerTableRecord
  2
140
 70
     0
 62
     7
  6
Continuous
370
    -3
390
F
  0
LAYER
  5
B9
102
{ACAD_XDICTIONARY
360
616
102
}
330
2
100
AcDbSymbolTableRecord
100
AcDbLayerTableRecord
  2
141
 70
     0
 62
     7
  6
Continuous
370
    -3
390
F
  0
LAYER
  5
BA
102
{ACAD_XDICTIONARY
360
618
102
}
330
2
100
AcDbSymbolTableRecord
100
AcDbLayerTableRecord
  2
142
 70
     0
 62
     7
  6
Continuous
370
    -3
390
F
  0
LAYER
  5
BB
102
{ACAD_XDICTIONARY
360
61A
102
}
330
2
100
AcDbSymbolTableRecord
100
AcDbLayerTableRecord
  2
143
 70
     0
 62
     7
  6
Continuous
370
    -3
390
F
  0
LAYER
  5
BC
102
{ACAD_XDICTIONARY
360
61C
102
}
330
2
100
AcDbSymbolTableRecord
100
AcDbLayerTableRecord
  2
144
 70
     0
 62
     7
  6
Continuous
370
    -3
390
F
  0
LAYER
  5
BD
102
{ACAD_XDICTIONARY
360
61E
102
}
330
2
100
AcDbSymbolTableRecord
100
AcDbLayerTableRecord
  2
145
 70
     0
 62
     7
  6
Continuous
370
    -3
390
F
  0
LAYER
  5
BE
102
{ACAD_XDICTIONARY
360
620
102
}
330
2
100
AcDbSymbolTableRecord
100
AcDbLayerTableRecord
  2
146
 70
     0
 62
     7
  6
Continuous
370
    -3
390
F
  0
LAYER
  5
BF
102
{ACAD_XDICTIONARY
360
622
102
}
330
2
100
AcDbSymbolTableRecord
100
AcDbLayerTableRecord
  2
147
 70
     0
 62
     7
  6
Continuous
370
    -3
390
F
  0
LAYER
  5
C0
102
{ACAD_XDICTIONARY
360
624
102
}
330
2
100
AcDbSymbolTableRecord
100
AcDbLayerTableRecord
  2
148
 70
     0
 62
     7
  6
Continuous
370
    -3
390
F
  0
LAYER
  5
C1
102
{ACAD_XDICTIONARY
360
626
102
}
330
2
100
AcDbSymbolTableRecord
100
AcDbLayerTableRecord
  2
149
 70
     0
 62
     7
  6
Continuous
370
    -3
390
F
  0
LAYER
  5
C2
102
{ACAD_XDICTIONARY
360
628
102
}
330
2
100
AcDbSymbolTableRecord
100
AcDbLayerTableRecord
  2
150
 70
     0
 62
     7
  6
Continuous
370
    -3
390
F
  0
LAYER
  5
C3
102
{ACAD_XDICTIONARY
360
62A
102
}
330
2
100
AcDbSymbolTableRecord
100
AcDbLayerTableRecord
  2
151
 70
     0
 62
     7
  6
Continuous
370
    -3
390
F
  0
LAYER
  5
C4
102
{ACAD_XDICTIONARY
360
62C
102
}
330
2
100
AcDbSymbolTableRecord
100
AcDbLayerTableRecord
  2
152
 70
     0
 62
     7
  6
Continuous
370
    -3
390
F
  0
LAYER
  5
C5
102
{ACAD_XDICTIONARY
360
62E
102
}
330
2
100
AcDbSymbolTableRecord
100
AcDbLayerTableRecord
  2
153
 70
     0
 62
     7
  6
Continuous
370
    -3
390
F
  0
LAYER
  5
C6
102
{ACAD_XDICTIONARY
360
630
102
}
330
2
100
AcDbSymbolTableRecord
100
AcDbLayerTableRecord
  2
154
 70
     0
 62
     7
  6
Continuous
370
    -3
390
F
  0
LAYER
  5
C7
102
{ACAD_XDICTIONARY
360
632
102
}
330
2
100
AcDbSymbolTableRecord
100
AcDbLayerTableRecord
  2
155
 70
     0
 62
     7
  6
Continuous
370
    -3
390
F
  0
LAYER
  5
C8
102
{ACAD_XDICTIONARY
360
634
102
}
330
2
100
AcDbSymbolTableRecord
100
AcDbLayerTableRecord
  2
156
 70
     0
 62
     7
  6
Continuous
370
    -3
390
F
  0
LAYER
  5
C9
102
{ACAD_XDICTIONARY
360
636
102
}
330
2
100
AcDbSymbolTableRecord
100
AcDbLayerTableRecord
  2
157
 70
     0
 62
     7
  6
Continuous
370
    -3
390
F
  0
LAYER
  5
CA
102
{ACAD_XDICTIONARY
360
638
102
}
330
2
100
AcDbSymbolTableRecord
100
AcDbLayerTableRecord
  2
158
 70
     0
 62
     7
  6
Continuous
370
    -3
390
F
  0
LAYER
  5
CB
102
{ACAD_XDICTIONARY
360
63A
102
}
330
2
100
AcDbSymbolTableRecord
100
AcDbLayerTableRecord
  2
159
 70
     0
 62
     7
  6
Continuous
370
    -3
390
F
  0
LAYER
  5
CC
102
{ACAD_XDICTIONARY
360
63C
102
}
330
2
100
AcDbSymbolTableRecord
100
AcDbLayerTableRecord
  2
160
 70
     0
 62
     7
  6
Continuous
370
    -3
390
F
  0
LAYER
  5
CD
102
{ACAD_XDICTIONARY
360
63E
102
}
330
2
100
AcDbSymbolTableRecord
100
AcDbLayerTableRecord
  2
161
 70
     0
 62
     7
  6
Continuous
370
    -3
390
F
  0
LAYER
  5
CE
102
{ACAD_XDICTIONARY
360
640
102
}
330
2
100
AcDbSymbolTableRecord
100
AcDbLayerTableRecord
  2
162
 70
     0
 62
     7
  6
Continuous
370
    -3
390
F
  0
LAYER
  5
CF
102
{ACAD_XDICTIONARY
360
642
102
}
330
2
100
AcDbSymbolTableRecord
100
AcDbLayerTableRecord
  2
163
 70
     0
 62
     7
  6
Continuous
370
    -3
390
F
  0
LAYER
  5
D0
102
{ACAD_XDICTIONARY
360
644
102
}
330
2
100
AcDbSymbolTableRecord
100
AcDbLayerTableRecord
  2
164
 70
     0
 62
     7
  6
Continuous
370
    -3
390
F
  0
LAYER
  5
D1
102
{ACAD_XDICTIONARY
360
646
102
}
330
2
100
AcDbSymbolTableRecord
100
AcDbLayerTableRecord
  2
165
 70
     0
 62
     7
  6
Continuous
370
    -3
390
F
  0
LAYER
  5
D2
102
{ACAD_XDICTIONARY
360
648
102
}
330
2
100
AcDbSymbolTableRecord
100
AcDbLayerTableRecord
  2
166
 70
     0
 62
     7
  6
Continuous
370
    -3
390
F
  0
LAYER
  5
D3
102
{ACAD_XDICTIONARY
360
64A
102
}
330
2
100
AcDbSymbolTableRecord
100
AcDbLayerTableRecord
  2
167
 70
     0
 62
     7
  6
Continuous
370
    -3
390
F
  0
LAYER
  5
D4
102
{ACAD_XDICTIONARY
360
64C
102
}
330
2
100
AcDbSymbolTableRecord
100
AcDbLayerTableRecord
  2
168
 70
     0
 62
     7
  6
Continuous
370
    -3
390
F
  0
LAYER
  5
D5
102
{ACAD_XDICTIONARY
360
64E
102
}
330
2
100
AcDbSymbolTableRecord
100
AcDbLayerTableRecord
  2
169
 70
     0
 62
     7
  6
Continuous
370
    -3
390
F
  0
LAYER
  5
D6
102
{ACAD_XDICTIONARY
360
650
102
}
330
2
100
AcDbSymbolTableRecord
100
AcDbLayerTableRecord
  2
170
 70
     0
 62
     7
  6
Continuous
370
    -3
390
F
  0
LAYER
  5
D7
102
{ACAD_XDICTIONARY
360
652
102
}
330
2
100
AcDbSymbolTableRecord
100
AcDbLayerTableRecord
  2
171
 70
     0
 62
     7
  6
Continuous
370
    -3
390
F
  0
LAYER
  5
D8
102
{ACAD_XDICTIONARY
360
654
102
}
330
2
100
AcDbSymbolTableRecord
100
AcDbLayerTableRecord
  2
172
 70
     0
 62
     7
  6
Continuous
370
    -3
390
F
  0
LAYER
  5
D9
102
{ACAD_XDICTIONARY
360
656
102
}
330
2
100
AcDbSymbolTableRecord
100
AcDbLayerTableRecord
  2
173
 70
     0
 62
     7
  6
Continuous
370
    -3
390
F
  0
LAYER
  5
DA
102
{ACAD_XDICTIONARY
360
658
102
}
330
2
100
AcDbSymbolTableRecord
100
AcDbLayerTableRecord
  2
174
 70
     0
 62
     7
  6
Continuous
370
    -3
390
F
  0
LAYER
  5
DB
102
{ACAD_XDICTIONARY
360
65A
102
}
330
2
100
AcDbSymbolTableRecord
100
AcDbLayerTableRecord
  2
175
 70
     0
 62
     7
  6
Continuous
370
    -3
390
F
  0
LAYER
  5
DC
102
{ACAD_XDICTIONARY
360
65C
102
}
330
2
100
AcDbSymbolTableRecord
100
AcDbLayerTableRecord
  2
176
 70
     0
 62
     7
  6
Continuous
370
    -3
390
F
  0
LAYER
  5
DD
102
{ACAD_XDICTIONARY
360
65E
102
}
330
2
100
AcDbSymbolTableRecord
100
AcDbLayerTableRecord
  2
177
 70
     0
 62
     7
  6
Continuous
370
    -3
390
F
  0
LAYER
  5
DE
102
{ACAD_XDICTIONARY
360
660
102
}
330
2
100
AcDbSymbolTableRecord
100
AcDbLayerTableRecord
  2
178
 70
     0
 62
     7
  6
Continuous
370
    -3
390
F
  0
LAYER
  5
DF
102
{ACAD_XDICTIONARY
360
662
102
}
330
2
100
AcDbSymbolTableRecord
100
AcDbLayerTableRecord
  2
179
 70
     0
 62
     7
  6
Continuous
370
    -3
390
F
  0
LAYER
  5
E0
102
{ACAD_XDICTIONARY
360
664
102
}
330
2
100
AcDbSymbolTableRecord
100
AcDbLayerTableRecord
  2
180
 70
     0
 62
     7
  6
Continuous
370
    -3
390
F
  0
LAYER
  5
E1
102
{ACAD_XDICTIONARY
360
666
102
}
330
2
100
AcDbSymbolTableRecord
100
AcDbLayerTableRecord
  2
DRAFTING_HIDDEN_ENTITIES
 70
     1
 62
     7
  6
Continuous
370
    -3
390
F
  0
ENDTAB
  0
TABLE
  2
STYLE
  5
3
330
0
100
AcDbSymbolTable
 70
     5
  0
STYLE
  5
11
330
3
100
AcDbSymbolTableRecord
100
AcDbTextStyleTableRecord
  2
STANDARD
 70
     0
 40
0.0
 41
1.0
 50
0.0
 71
     0
 42
1.0
  3
monotxt.shx
  4

  0
STYLE
  5
4DB
330
3
100
AcDbSymbolTableRecord
100
AcDbTextStyleTableRecord
  2

 70
     1
 40
0.0
 41
1.0
 50
0.0
 71
     0
 42
1.0
  3
genltshp.shx
  4

  0
STYLE
  5
4EB
330
3
100
AcDbSymbolTableRecord
100
AcDbTextStyleTableRecord
  2
ACANSTS
 70
     0
 40
1.0
 41
1.0
 50
0.0
 71
     0
 42
1.0
  3
romans.shx
  4

  0
STYLE
  5
4EC
330
3
100
AcDbSymbolTableRecord
100
AcDbTextStyleTableRecord
  2
ACANSGDT
 70
     0
 40
0.0
 41
1.0
 50
0.0
 71
     0
 42
1.0
  3
amgdt.shx
  4

  0
ENDTAB
  0
TABLE
  2
VIEW
  5
6
330
0
100
AcDbSymbolTable
 70
     0
  0
ENDTAB
  0
TABLE
  2
UCS
  5
7
330
0
100
AcDbSymbolTable
 70
     0
  0
ENDTAB
  0
TABLE
  2
APPID
  5
9
330
0
100
AcDbSymbolTable
 70
    16
  0
APPID
  5
12
330
9
100
AcDbSymbolTableRecord
100
AcDbRegAppTableRecord
  2
ACAD
 70
     0
  0
APPID
  5
45F
330
9
100
AcDbSymbolTableRecord
100
AcDbRegAppTableRecord
  2
MCAD_NO_VIS
 70
     0
  0
APPID
  5
460
330
9
100
AcDbSymbolTableRecord
100
AcDbRegAppTableRecord
  2
ACAD_TEMP_GRAPHIC
 70
     0
  0
APPID
  5
48D
330
9
100
AcDbSymbolTableRecord
100
AcDbRegAppTableRecord
  2
AD_DRAW
 70
     0
  0
APPID
  5
490
330
9
100
AcDbSymbolTableRecord
100
AcDbRegAppTableRecord
  2
ACATTRIBSERVICES
 70
     0
  0
APPID
  5
4B4
330
9
100
AcDbSymbolTableRecord
100
AcDbRegAppTableRecord
  2
DESIGNERASSEMBLIES
 70
     0
  0
APPID
  5
4BA
330
9
100
AcDbSymbolTableRecord
100
AcDbRegAppTableRecord
  2
ACADM_DIM_EDIT
 70
     0
  0
APPID
  5
4BB
330
9
100
AcDbSymbolTableRecord
100
AcDbRegAppTableRecord
  2
AMDT_DM_ADJ
 70
     0
  0
APPID
  5
4D1
330
9
100
AcDbSymbolTableRecord
100
AcDbRegAppTableRecord
  2
ACAD_DSTYLE_DIMJAG
 70
     0
  0
APPID
  5
4D2
330
9
100
AcDbSymbolTableRecord
100
AcDbRegAppTableRecord
  2
ACAD_DSTYLE_DIMBREAK
 70
     0
  0
APPID
  5
668
330
9
100
AcDbSymbolTableRecord
100
AcDbRegAppTableRecord
  2
ACAD_PSEXT
 70
     0
  0
APPID
  5
6A9
330
9
100
AcDbSymbolTableRecord
100
AcDbRegAppTableRecord
  2
ACAD_MLEADERVER
 70
     0
  0
APPID
  5
6AA
330
9
100
AcDbSymbolTableRecord
100
AcDbRegAppTableRecord
  2
ACAD_DSTYLE_DIMARC_LENGTH_SYMBOL
 70
     0
  0
APPID
  5
6AB
330
9
100
AcDbSymbolTableRecord
100
AcDbRegAppTableRecord
  2
ACAD_DSTYLE_DIM_LINETYPE
 70
     0
  0
APPID
  5
6AC
330
9
100
AcDbSymbolTableRecord
100
AcDbRegAppTableRecord
  2
ACAD_DSTYLE_DIM_EXT1_LINETYPE
 70
     0
  0
APPID
  5
6AD
330
9
100
AcDbSymbolTableRecord
100
AcDbRegAppTableRecord
  2
ACAD_DSTYLE_DIM_EXT2_LINETYPE
 70
     0
  0
ENDTAB
  0
TABLE
  2
DIMSTYLE
  5
A
330
0
100
AcDbSymbolTable
 70
     9
100
AcDbDimStyleTable
 71
     1
340
E2
  0
DIMSTYLE
105
E2
330
A
100
AcDbSymbolTableRecord
100
AcDbDimStyleTableRecord
  2
DSTYLE1
 70
     0
 41
0.375
 42
0.125
 44
0.0625
 45
0.001
 47
1.0
 48
-1.0
 75
     1
 78
     7
140
0.25
143
1.0
147
0.0625
271
     3
272
     3
274
     0
279
     2
340
11
  0
DIMSTYLE
105
E3
330
A
100
AcDbSymbolTableRecord
100
AcDbDimStyleTableRecord
  2
DSTYLE2
 70
     0
 41
0.125
 42
0.075
 44
0.125
 45
0.001
 47
0.005
 48
0.005
 75
     1
 76
     1
 78
     7
140
0.125
147
0.075
271
     3
272
     3
274
     0
279
     2
340
11
  0
DIMSTYLE
105
4D0
102
{ACAD_REACTORS
330
4C0
102
}
330
A
100
AcDbSymbolTableRecord
100
AcDbDimStyleTableRecord
  2
AM_ANSI
 70
     0
  4
mm
 41
0.12
 42
0.05
 43
0.5
 44
0.1
 47
0.1
 48
0.1
 78
     7
 79
     2
140
0.12
141
0.0
146
0.71
147
0.06
176
   256
177
   256
178
     2
274
     4
284
     7
340
11
371
    -1
372
    -1
1001
ACAD_DSTYLE_DIMJAG
1070
   388
1040
1.5
1001
ACAD_DSTYLE_DIMBREAK
1070
   391
1040
0.125
1001
ACAD_DSTYLE_DIMARC_LENGTH_SYMBOL
1070
   379
1070
     1
1001
ACAD_DSTYLE_DIM_LINETYPE
1070
   380
1005
13
1001
ACAD_DSTYLE_DIM_EXT1_LINETYPE
1070
   381
1005
13
1001
ACAD_DSTYLE_DIM_EXT2_LINETYPE
1070
   382
1005
13
  0
DIMSTYLE
105
4E0
330
A
100
AcDbSymbolTableRecord
100
AcDbDimStyleTableRecord
  2
AM_ANSI$3
 70
     0
  4
mm
 41
0.12
 42
0.05
 43
0.5
 44
0.1
 47
0.1
 48
0.1
 78
     7
 79
     2
140
0.12
141
0.0
146
0.71
147
0.06
176
   256
177
   256
178
     2
274
     4
284
     7
288
     1
289
     0
340
11
371
    -1
372
    -1
1001
ACAD_DSTYLE_DIMBREAK
1070
   391
1040
0.125
1001
ACAD_DSTYLE_DIMJAG
1070
   388
1040
1.5
1001
ACAD_DSTYLE_DIMARC_LENGTH_SYMBOL
1070
   379
1070
     1
1001
ACAD_DSTYLE_DIM_LINETYPE
1070
   380
1005
13
1001
ACAD_DSTYLE_DIM_EXT1_LINETYPE
1070
   381
1005
13
1001
ACAD_DSTYLE_DIM_EXT2_LINETYPE
1070
   382
1005
13
  0
DIMSTYLE
105
4E1
330
A
100
AcDbSymbolTableRecord
100
AcDbDimStyleTableRecord
  2
AM_ANSI$4
 70
     0
  4
mm
 41
0.12
 42
0.05
 43
0.5
 44
0.1
 47
0.1
 48
0.1
 78
     7
 79
     2
140
0.12
141
0.0
146
0.71
147
0.06
176
   256
177
   256
178
     2
274
     4
284
     7
288
     1
289
     0
340
11
371
    -1
372
    -1
1001
ACAD_DSTYLE_DIMBREAK
1070
   391
1040
0.125
1001
ACAD_DSTYLE_DIMJAG
1070
   388
1040
1.5
1001
ACAD_DSTYLE_DIMARC_LENGTH_SYMBOL
1070
   379
1070
     1
1001
ACAD_DSTYLE_DIM_LINETYPE
1070
   380
1005
13
1001
ACAD_DSTYLE_DIM_EXT1_LINETYPE
1070
   381
1005
13
1001
ACAD_DSTYLE_DIM_EXT2_LINETYPE
1070
   382
1005
13
  0
DIMSTYLE
105
4E2
330
A
100
AcDbSymbolTableRecord
100
AcDbDimStyleTableRecord
  2
AM_ANSI$7
 70
     0
  4
mm
 41
0.12
 42
0.05
 43
0.5
 44
0.1
 47
0.1
 48
0.1
 78
     7
 79
     2
140
0.12
141
0.0
146
0.71
147
0.06
176
   256
177
   256
178
     2
274
     4
284
     7
340
11
371
    -1
372
    -1
1001
ACAD_DSTYLE_DIMBREAK
1070
   391
1040
0.125
1001
ACAD_DSTYLE_DIMJAG
1070
   388
1040
1.5
1001
ACAD_DSTYLE_DIMARC_LENGTH_SYMBOL
1070
   379
1070
     1
1001
ACAD_DSTYLE_DIM_LINETYPE
1070
   380
1005
13
1001
ACAD_DSTYLE_DIM_EXT1_LINETYPE
1070
   381
1005
13
1001
ACAD_DSTYLE_DIM_EXT2_LINETYPE
1070
   382
1005
13
  0
DIMSTYLE
105
4E3
330
A
100
AcDbSymbolTableRecord
100
AcDbDimStyleTableRecord
  2
AM_ANSI$SF
 70
     0
  4
mm
 41
0.12
 42
0.05
 43
0.5
 44
0.1
 47
0.1
 48
0.1
 75
     1
 76
     1
 78
     7
 79
     2
140
0.12
141
0.0
146
0.71
147
0.06
176
   256
177
   256
178
     2
274
     4
284
     7
340
11
371
    -1
372
    -1
1001
ACAD_DSTYLE_DIMBREAK
1070
   391
1040
0.125
1001
ACAD_DSTYLE_DIMJAG
1070
   388
1040
1.5
1001
ACAD_DSTYLE_DIMARC_LENGTH_SYMBOL
1070
   379
1070
     1
1001
ACAD_DSTYLE_DIM_LINETYPE
1070
   380
1005
13
1001
ACAD_DSTYLE_DIM_EXT1_LINETYPE
1070
   381
1005
13
1001
ACAD_DSTYLE_DIM_EXT2_LINETYPE
1070
   382
1005
13
  0
DIMSTYLE
105
4E8
330
A
100
AcDbSymbolTableRecord
100
AcDbDimStyleTableRecord
  2
AM_ANSI$SH
 70
     0
  4
mm
 41
0.12
 42
0.05
 43
0.5
 44
0.1
 47
0.1
 48
0.1
 75
     1
 76
     1
 78
     7
 79
     2
140
0.12
141
0.0
146
0.71
147
0.06
173
     1
176
   256
177
   256
178
     2
274
     4
284
     7
340
11
343
4E4
371
    -1
372
    -1
1001
ACAD_DSTYLE_DIMBREAK
1070
   391
1040
0.125
1001
ACAD_DSTYLE_DIMJAG
1070
   388
1040
1.5
1001
ACAD_DSTYLE_DIMARC_LENGTH_SYMBOL
1070
   379
1070
     1
1001
ACAD_DSTYLE_DIM_LINETYPE
1070
   380
1005
13
1001
ACAD_DSTYLE_DIM_EXT1_LINETYPE
1070
   381
1005
13
1001
ACAD_DSTYLE_DIM_EXT2_LINETYPE
1070
   382
1005
13
  0
ENDTAB
  0
TABLE
  2
BLOCK_RECORD
  5
1
330
0
100
AcDbSymbolTable
 70
    16
  0
BLOCK_RECORD
  5
22
330
1
100
AcDbSymbolTableRecord
100
AcDbBlockTableRecord
  2
*Model_Space
340
25
  0
BLOCK_RECORD
  5
1E
330
1
100
AcDbSymbolTableRecord
100
AcDbBlockTableRecord
  2
*Paper_Space
340
21
  0
BLOCK_RECORD
  5
E6
330
1
100
AcDbSymbolTableRecord
100
AcDbBlockTableRecord
  2
*U0
340
0
102
{BLKREFS
331
3F0
102
}
  0
BLOCK_RECORD
  5
EB
330
1
100
AcDbSymbolTableRecord
100
AcDbBlockTableRecord
  2
*U1
340
0
102
{BLKREFS
331
3F1
102
}
  0
BLOCK_RECORD
  5
F0
330
1
100
AcDbSymbolTableRecord
100
AcDbBlockTableRecord
  2
R
340
0
  0
BLOCK_RECORD
  5
F8
330
1
100
AcDbSymbolTableRecord
100
AcDbBlockTableRecord
  2
*U3
340
0
102
{BLKREFS
331
3FC
102
}
  0
BLOCK_RECORD
  5
104
330
1
100
AcDbSymbolTableRecord
100
AcDbBlockTableRecord
  2
*U4
340
0
102
{BLKREFS
331
3E2
102
}
  0
BLOCK_RECORD
  5
10B
330
1
100
AcDbSymbolTableRecord
100
AcDbBlockTableRecord
  2
*U5
340
0
102
{BLKREFS
331
3F6
102
}
  0
BLOCK_RECORD
  5
110
330
1
100
AcDbSymbolTableRecord
100
AcDbBlockTableRecord
  2
*U6
340
0
102
{BLKREFS
331
3F8
102
}
  0
BLOCK_RECORD
  5
11C
330
1
100
AcDbSymbolTableRecord
100
AcDbBlockTableRecord
  2
*U7
340
0
102
{BLKREFS
331
3FD
102
}
  0
BLOCK_RECORD
  5
123
330
1
100
AcDbSymbolTableRecord
100
AcDbBlockTableRecord
  2
*D8
340
0
102
{BLKREFS
331
3E6
102
}
  0
BLOCK_RECORD
  5
12C
330
1
100
AcDbSymbolTableRecord
100
AcDbBlockTableRecord
  2
*D9
340
0
102
{BLKREFS
331
3F7
102
}
  0
BLOCK_RECORD
  5
135
330
1
100
AcDbSymbolTableRecord
100
AcDbBlockTableRecord
  2
*D10
340
0
102
{BLKREFS
331
3F9
102
}
  0
BLOCK_RECORD
  5
13A
330
1
100
AcDbSymbolTableRecord
100
AcDbBlockTableRecord
  2
*D11
340
0
102
{BLKREFS
331
3FA
102
}
  0
BLOCK_RECORD
  5
143
330
1
100
AcDbSymbolTableRecord
100
AcDbBlockTableRecord
  2
*D12
340
0
102
{BLKREFS
331
3FB
102
}
  0
BLOCK_RECORD
  5
4E4
330
1
100
AcDbSymbolTableRecord
100
AcDbBlockTableRecord
  2
GENAXEH
340
0
  0
ENDTAB
  0
ENDSEC
  0
SECTION
  2
BLOCKS
  0
BLOCK
  5
23
330
22
100
AcDbEntity
  8
0
100
AcDbBlockBegin
  2
*Model_Space
 70
     0
 10
0.0
 20
0.0
 30
0.0
  3
*Model_Space
  1

  0
ENDBLK
  5
24
330
22
100
AcDbEntity
  8
0
100
AcDbBlockEnd
  0
BLOCK
  5
1F
330
1E
100
AcDbEntity
 67
     1
  8
0
100
AcDbBlockBegin
  2
*Paper_Space
 70
     0
 10
0.0
 20
0.0
 30
0.0
  3
*Paper_Space
  1

  0
ENDBLK
  5
20
330
1E
100
AcDbEntity
 67
     1
  8
0
100
AcDbBlockEnd
  0
BLOCK
  5
E7
330
E6
100
AcDbEntity
  8
0
100
AcDbBlockBegin
  2
*U0
 70
     1
 10
0.0
 20
0.0
 30
0.0
  3
*U0
  1

  0
TEXT
  5
E8
330
E6
100
AcDbEntity
  8
180
  6
Continuous
 62
     1
100
AcDbText
 10
-1.418650864583331
 20
0.0
 30
0.0
 40
0.125
  1
CARDBOARD TEMPLATE FOR
 41
1.047619099999999
 51
359.9999958057
 72
     1
 11
0.0
 21
0.0
 31
0.0
100
AcDbText
  0
TEXT
  5
E9
330
E6
100
AcDbEntity
  8
180
  6
Continuous
 62
     1
100
AcDbText
 10
-1.353174670833331
 20
-0.1875
 30
0.0
 40
0.125
  1
SCF16FB & SCF16 SINKS
 41
1.047619099999999
 51
359.9999958057
 72
     1
 11
0.0
 21
-0.1875
 31
0.0
100
AcDbText
  0
ENDBLK
  5
EA
330
E6
100
AcDbEntity
  8
0
100
AcDbBlockEnd
  0
BLOCK
  5
EC
330
EB
100
AcDbEntity
  8
0
100
AcDbBlockBegin
  2
*U1
 70
     1
 10
0.0
 20
0.0
 30
0.0
  3
*U1
  1

  0
TEXT
  5
ED
330
EB
100
AcDbEntity
  8
1
  6
Continuous
 62
     1
100
AcDbText
 10
-0.8206349616666656
 20
0.0
 30
0.0
 40
0.1
  1
50 PT. CARDBOARD
 41
1.047619099999999
 51
359.9999958057
 72
     1
 11
0.0
 21
0.0
 31
0.0
100
AcDbText
  0
TEXT
  5
EE
330
EB
100
AcDbEntity
  8
1
  6
Continuous
 62
     1
100
AcDbText
 10
-0.8730159166666657
 20
-0.15
 30
0.0
 40
0.1
  1
BROWN ON (1) SIDE
 41
1.047619099999999
 51
359.9999958057
 72
     1
 11
0.0
 21
-0.15
 31
0.0
100
AcDbText
  0
ENDBLK
  5
EF
330
EB
100
AcDbEntity
  8
0
100
AcDbBlockEnd
  0
BLOCK
  5
F1
330
F0
100
AcDbEntity
  8
0
100
AcDbBlockBegin
  2
R
 70
     0
 10
0.0
 20
0.0
 30
0.0
  3
R
  1

  0
TEXT
  5
F2
330
F0
100
AcDbEntity
  8
1
  6
Continuous
 62
     3
100
AcDbText
 10
-6.3106596
 20
-1.9656057
 30
0.0
 40
0.1
  1
REL - BV03001 08JAN03
 50
90.0
100
AcDbText
  0
TEXT
  5
F3
330
F0
100
AcDbEntity
  8
1
  6
Continuous
 62
     3
100
AcDbText
 10
-2.223963799999999
 20
-1.365123699999999
 30
0.0
 40
0.125
  1
PW
 41
1.047619099999999
 51
359.9999958057
100
AcDbText
  0
TEXT
  5
F4
330
F0
100
AcDbEntity
  8
1
  6
Continuous
 62
     3
100
AcDbText
 10
-2.223963799999999
 20
-1.6463737
 30
0.0
 40
0.125
  1
PW
 41
1.047619099999999
 51
359.9999958057
100
AcDbText
  0
TEXT
  5
F5
330
F0
100
AcDbEntity
  8
1
  6
Continuous
 62
     1
100
AcDbText
 10
-2.555798299999999
 20
-1.9003916
 30
0.0
 40
0.1
  1
08JAN03
 41
1.047619
 51
359.9999958057
100
AcDbText
  0
POINT
  5
F6
330
F0
100
AcDbEntity
  8
1
  6
Continuous
 62
     1
100
AcDbPoint
 10
0.0
 20
0.0
 30
0.0
  0
ENDBLK
  5
F7
330
F0
100
AcDbEntity
  8
0
100
AcDbBlockEnd
  0
BLOCK
  5
F9
330
F8
100
AcDbEntity
  8
0
100
AcDbBlockBegin
  2
*U3
 70
     1
 10
0.0
 20
0.0
 30
0.0
  3
*U3
  1

  0
TEXT
  5
FA
330
F8
100
AcDbEntity
  8
1
  6
Continuous
 62
     3
100
AcDbText
 10
0.0
 20
0.0
 30
0.0
 40
0.2
  1
SCF16FBBH
100
AcDbText
  0
TEXT
  5
FB
330
F8
100
AcDbEntity
  8
1
  6
Continuous
 62
     3
100
AcDbText
 10
0.0
 20
-0.3
 30
0.0
 40
0.2
  1
SCF16FBBM
100
AcDbText
  0
TEXT
  5
FC
330
F8
100
AcDbEntity
  8
1
  6
Continuous
 62
     3
100
AcDbText
 10
0.0
 20
-0.6
 30
0.0
 40
0.2
  1
SCF16FBBS
100
AcDbText
  0
TEXT
  5
FD
330
F8
100
AcDbEntity
  8
1
  6
Continuous
 62
     3
100
AcDbText
 10
0.0
 20
-0.9
 30
0.0
 40
0.2
  1
SCF16FBCH
100
AcDbText
  0
TEXT
  5
FE
330
F8
100
AcDbEntity
  8
1
  6
Continuous
 62
     3
100
AcDbText
 10
0.0
 20
-1.199999999999999
 30
0.0
 40
0.2
  1
SCF16FBCM
100
AcDbText
  0
TEXT
  5
FF
330
F8
100
AcDbEntity
  8
1
  6
Continuous
 62
     3
100
AcDbText
 10
0.0
 20
-1.5
 30
0.0
 40
0.2
  1
SCF16FBCS
100
AcDbText
  0
TEXT
  5
100
330
F8
100
AcDbEntity
  8
1
  6
Continuous
 62
     3
100
AcDbText
 10
0.0
 20
-1.8
 30
0.0
 40
0.2
  1
SCF16FBSH
100
AcDbText
  0
TEXT
  5
101
330
F8
100
AcDbEntity
  8
1
  6
Continuous
 62
     3
100
AcDbText
 10
0.0
 20
-2.1
 30
0.0
 40
0.2
  1
SCF16FBSM
100
AcDbText
  0
TEXT
  5
102
330
F8
100
AcDbEntity
  8
1
  6
Continuous
 62
     3
100
AcDbText
 10
0.0
 20
-2.399999999999999
 30
0.0
 40
0.2
  1
SCF16FBSR
100
AcDbText
  0
ENDBLK
  5
103
330
F8
100
AcDbEntity
  8
0
100
AcDbBlockEnd
  0
BLOCK
  5
105
330
104
100
AcDbEntity
  8
0
100
AcDbBlockBegin
  2
*U4
 70
     1
 10
0.0
 20
0.0
 30
0.0
  3
*U4
  1

  0
TEXT
  5
106
330
104
100
AcDbEntity
  8
1
  6
Continuous
 62
     3
100
AcDbText
 10
-2.833333333333332
 20
-0.125
 30
0.0
 40
0.25
  1
TEMPLATE FOR UNDERMOUNT
 72
     1
 11
0.0
 21
0.0
 31
0.0
100
AcDbText
 73
     2
  0
TEXT
  5
107
330
104
100
AcDbEntity
  8
1
  6
Continuous
 62
     3
100
AcDbText
 10
-2.729166666666666
 20
-0.5
 30
0.0
 40
0.25
  1
INSTALLATION ONLY. FOR
 72
     1
 11
0.0
 21
-0.375
 31
0.0
100
AcDbText
 73
     2
  0
TEXT
  5
108
330
104
100
AcDbEntity
  8
1
  6
Continuous
 62
     3
100
AcDbText
 10
-2.708333333333333
 20
-0.875
 30
0.0
 40
0.25
  1
TOP MOUNT INSTALLATION
 72
     1
 11
0.0
 21
-0.75
 31
0.0
100
AcDbText
 73
     2
  0
TEXT
  5
109
330
104
100
AcDbEntity
  8
1
  6
Continuous
 62
     3
100
AcDbText
 10
-3.333333333333333
 20
-1.25
 30
0.0
 40
0.25
  1
REFERENCE INSTRUCTION SHEET
 72
     1
 11
0.0
 21
-1.125
 31
0.0
100
AcDbText
 73
     2
  0
ENDBLK
  5
10A
330
104
100
AcDbEntity
  8
0
100
AcDbBlockEnd
  0
BLOCK
  5
10C
330
10B
100
AcDbEntity
  8
0
100
AcDbBlockBegin
  2
*U5
 70
     1
 10
0.0
 20
0.0
 30
0.0
  3
*U5
  1

  0
TEXT
  5
10D
330
10B
100
AcDbEntity
  8
1
  6
Continuous
 62
     3
100
AcDbText
 10
0.0
 20
0.0
 30
0.0
 40
0.08
  1
REL - BV03001 08JAN03
 50
90.0
100
AcDbText
  0
TEXT
  5
10E
330
10B
100
AcDbEntity
  8
1
  6
Continuous
 62
     3
100
AcDbText
 10
0.12
 20
0.0
 30
0.0
 40
0.08
  1
  A - ECNBV05022 08APR05
 50
90.0
100
AcDbText
  0
ENDBLK
  5
10F
330
10B
100
AcDbEntity
  8
0
100
AcDbBlockEnd
  0
BLOCK
  5
111
330
110
100
AcDbEntity
  8
0
100
AcDbBlockBegin
  2
*U6
 70
     1
 10
0.0
 20
0.0
 30
0.0
  3
*U6
  1

  0
TEXT
  5
112
330
110
100
AcDbEntity
  8
1
  6
Continuous
 62
     3
100
AcDbText
 10
0.0
 20
0.0
 30
0.0
 40
0.2
  1
SCF16BH
100
AcDbText
  0
TEXT
  5
113
330
110
100
AcDbEntity
  8
1
  6
Continuous
 62
     3
100
AcDbText
 10
0.0
 20
-0.3
 30
0.0
 40
0.2
  1
SCF16BM
100
AcDbText
  0
TEXT
  5
114
330
110
100
AcDbEntity
  8
1
  6
Continuous
 62
     3
100
AcDbText
 10
0.0
 20
-0.6
 30
0.0
 40
0.2
  1
SCF16BS
100
AcDbText
  0
TEXT
  5
115
330
110
100
AcDbEntity
  8
1
  6
Continuous
 62
     3
100
AcDbText
 10
0.0
 20
-0.9
 30
0.0
 40
0.2
  1
SCF16CH
100
AcDbText
  0
TEXT
  5
116
330
110
100
AcDbEntity
  8
1
  6
Continuous
 62
     3
100
AcDbText
 10
0.0
 20
-1.199999999999999
 30
0.0
 40
0.2
  1
SCF16CM
100
AcDbText
  0
TEXT
  5
117
330
110
100
AcDbEntity
  8
1
  6
Continuous
 62
     3
100
AcDbText
 10
0.0
 20
-1.5
 30
0.0
 40
0.2
  1
SCF16CS
100
AcDbText
  0
TEXT
  5
118
330
110
100
AcDbEntity
  8
1
  6
Continuous
 62
     3
100
AcDbText
 10
0.0
 20
-1.8
 30
0.0
 40
0.2
  1
SCF16SH
100
AcDbText
  0
TEXT
  5
119
330
110
100
AcDbEntity
  8
1
  6
Continuous
 62
     3
100
AcDbText
 10
0.0
 20
-2.1
 30
0.0
 40
0.2
  1
SCF16SM
100
AcDbText
  0
TEXT
  5
11A
330
110
100
AcDbEntity
  8
1
  6
Continuous
 62
     3
100
AcDbText
 10
0.0
 20
-2.399999999999999
 30
0.0
 40
0.2
  1
SCF16SR
100
AcDbText
  0
ENDBLK
  5
11B
330
110
100
AcDbEntity
  8
0
100
AcDbBlockEnd
  0
BLOCK
  5
11D
330
11C
100
AcDbEntity
  8
0
100
AcDbBlockBegin
  2
*U7
 70
     1
 10
0.0
 20
0.0
 30
0.0
  3
*U7
  1

  0
TEXT
  5
11E
330
11C
100
AcDbEntity
  8
126
  6
Continuous
 62
     3
100
AcDbText
 10
0.0
 20
0.0
 30
0.0
 40
0.125
  1
NOTE:
 41
1.047619
 51
359.9999958057
100
AcDbText
  0
TEXT
  5
11F
330
11C
100
AcDbEntity
  8
126
  6
Continuous
 62
     3
100
AcDbText
 10
0.0
 20
-0.1875
 30
0.0
 40
0.125
  1
SAMPLES SHOULD BE CHECKED FOR
 41
1.047619
 51
359.9999958057
100
AcDbText
  0
TEXT
  5
120
330
11C
100
AcDbEntity
  8
126
  6
Continuous
 62
     3
100
AcDbText
 10
0.0
 20
-0.375
 30
0.0
 40
0.125
  1
FINAL FIT.
 41
1.047619
 51
359.9999958057
100
AcDbText
  0
TEXT
  5
121
330
11C
100
AcDbEntity
  8
126
  6
Continuous
 62
     3
100
AcDbText
 10
0.0
 20
-0.5625
 30
0.0
 40
0.125
  1
DIMENSIONS ARE FOR COSTING ONLY
 41
1.047619
 51
359.9999958057
100
AcDbText
  0
ENDBLK
  5
122
330
11C
100
AcDbEntity
  8
0
100
AcDbBlockEnd
  0
BLOCK
  5
124
330
123
100
AcDbEntity
  8
0
100
AcDbBlockBegin
  2
*D8
 70
     1
 10
0.0
 20
0.0
 30
0.0
  3
*D8
  1

  0
LINE
  5
125
330
123
100
AcDbEntity
  8
1
  6
Continuous
 62
     3
100
AcDbLine
 10
12.921251
 20
8.1873392
 30
0.0
 11
10.001919
 21
6.4024217
 31
0.0
  0
LINE
  5
126
330
123
100
AcDbEntity
  8
1
  6
Continuous
 62
     3
100
AcDbLine
 10
12.921251
 20
8.1873392
 30
0.0
 11
12.568711
 21
8.0450481
 31
0.0
  0
LINE
  5
127
330
123
100
AcDbEntity
  8
1
  6
Continuous
 62
     3
100
AcDbLine
 10
12.921251
 20
8.1873392
 30
0.0
 11
12.633916
 21
7.938402199999998
 31
0.0
  0
LINE
  5
128
330
123
100
AcDbEntity
  8
1
  6
Continuous
 62
     3
100
AcDbLine
 10
12.568711
 20
8.0450481
 30
0.0
 11
12.633916
 21
7.938402199999998
 31
0.0
  0
LINE
  5
129
330
123
100
AcDbEntity
  8
1
  6
Continuous
 62
     3
100
AcDbLine
 10
9.8144188
 20
6.4024217
 30
0.0
 11
10.001919
 21
6.4024217
 31
0.0
  0
TEXT
  5
12A
330
123
100
AcDbEntity
  8
1
  6
Continuous
 62
     3
100
AcDbText
 10
6.001918799999998
 20
6.2774217
 30
0.0
 40
0.25
  1
MUST BE VISIBLE
100
AcDbText
  0
ENDBLK
  5
12B
330
123
100
AcDbEntity
  8
0
100
AcDbBlockEnd
  0
BLOCK
  5
12D
330
12C
100
AcDbEntity
  8
0
100
AcDbBlockBegin
  2
*D9
 70
     1
 10
0.0
 20
0.0
 30
0.0
  3
*D9
  1

  0
LINE
  5
12E
330
12C
100
AcDbEntity
  8
126
  6
Continuous
 62
     3
100
AcDbLine
 10
19.357125
 20
5.919188
 30
0.0
 11
20.74952
 21
4.3567899
 31
0.0
  0
LINE
  5
12F
330
12C
100
AcDbEntity
  8
126
  6
Continuous
 62
     3
100
AcDbLine
 10
19.357125
 20
5.919188
 30
0.0
 11
19.559961
 21
5.597647099999998
 31
0.0
  0
LINE
  5
130
330
12C
100
AcDbEntity
  8
126
  6
Continuous
 62
     3
100
AcDbLine
 10
19.357125
 20
5.919188
 30
0.0
 11
19.653281
 21
5.6808125
 31
0.0
  0
LINE
  5
131
330
12C
100
AcDbEntity
  8
126
  6
Continuous
 62
     3
100
AcDbLine
 10
19.559961
 20
5.597647099999998
 30
0.0
 11
19.653281
 21
5.6808125
 31
0.0
  0
LINE
  5
132
330
12C
100
AcDbEntity
  8
126
  6
Continuous
 62
     3
100
AcDbLine
 10
20.93702
 20
4.3567899
 30
0.0
 11
20.74952
 21
4.3567899
 31
0.0
  0
TEXT
  5
133
330
12C
100
AcDbEntity
  8
126
  6
Continuous
 62
     3
100
AcDbText
 10
20.99952
 20
4.2317899
 30
0.0
 40
0.25
  1
TEMPLATE OUTLINE
100
AcDbText
  0
ENDBLK
  5
134
330
12C
100
AcDbEntity
  8
0
100
AcDbBlockEnd
  0
BLOCK
  5
136
330
135
100
AcDbEntity
  8
0
100
AcDbBlockBegin
  2
*D10
 70
     1
 10
0.0
 20
0.0
 30
0.0
  3
*D10
  1

  0
CIRCLE
  5
137
330
135
100
AcDbEntity
  8
1
  6
Continuous
 62
     3
100
AcDbCircle
 10
18.817415
 20
11.952117
 30
0.0
 40
0.125
  0
TEXT
  5
138
330
135
100
AcDbEntity
  8
1
  6
Continuous
 62
     3
100
AcDbText
 10
18.754915
 20
11.889617
 30
0.0
 40
0.125
  1
A
100
AcDbText
  0
ENDBLK
  5
139
330
135
100
AcDbEntity
  8
0
100
AcDbBlockEnd
  0
BLOCK
  5
13B
330
13A
100
AcDbEntity
  8
0
100
AcDbBlockBegin
  2
*D11
 70
     1
 10
0.0
 20
0.0
 30
0.0
  3
*D11
  1

  0
LINE
  5
13C
330
13A
100
AcDbEntity
  8
126
  6
Continuous
 62
     3
100
AcDbLine
 10
18.496158
 20
15.71912
 30
0.0
 11
23.211964
 21
18.074725
 31
0.0
  0
LINE
  5
13D
330
13A
100
AcDbEntity
  8
126
  6
Continuous
 62
     3
100
AcDbLine
 10
18.496158
 20
15.71912
 30
0.0
 11
18.859562
 21
15.830782
 31
0.0
  0
LINE
  5
13E
330
13A
100
AcDbEntity
  8
126
  6
Continuous
 62
     3
100
AcDbLine
 10
18.496158
 20
15.71912
 30
0.0
 11
18.803704
 21
15.942607
 31
0.0
  0
LINE
  5
13F
330
13A
100
AcDbEntity
  8
126
  6
Continuous
 62
     3
100
AcDbLine
 10
18.859562
 20
15.830782
 30
0.0
 11
18.803704
 21
15.942607
 31
0.0
  0
LINE
  5
140
330
13A
100
AcDbEntity
  8
126
  6
Continuous
 62
     3
100
AcDbLine
 10
23.399464
 20
18.074725
 30
0.0
 11
23.211964
 21
18.074725
 31
0.0
  0
TEXT
  5
141
330
13A
100
AcDbEntity
  8
126
  6
Continuous
 62
     3
100
AcDbText
 10
23.461964
 20
17.949725
 30
0.0
 40
0.25
  1
EMBOSS
100
AcDbText
  0
ENDBLK
  5
142
330
13A
100
AcDbEntity
  8
0
100
AcDbBlockEnd
  0
BLOCK
  5
144
330
143
100
AcDbEntity
  8
0
100
AcDbBlockBegin
  2
*D12
 70
     1
 10
0.0
 20
0.0
 30
0.0
  3
*D12
  1

  0
CIRCLE
  5
145
330
143
100
AcDbEntity
  8
1
  6
Continuous
 62
     3
100
AcDbCircle
 10
16.182648
 20
11.952117
 30
0.0
 40
0.125
  0
TEXT
  5
146
330
143
100
AcDbEntity
  8
1
  6
Continuous
 62
     3
100
AcDbText
 10
16.120148
 20
11.889617
 30
0.0
 40
0.125
  1
A
100
AcDbText
  0
ENDBLK
  5
147
330
143
100
AcDbEntity
  8
0
100
AcDbBlockEnd
  0
BLOCK
  5
4E6
330
4E4
100
AcDbEntity
  8
0
 62
     1
100
AcDbBlockBegin
  2
GENAXEH
 70
     0
 10
0.0
 20
0.0
 30
0.0
  3
GENAXEH
  1

  0
LINE
  5
4E5
330
4E4
100
AcDbEntity
  8
0
100
AcDbLine
 10
-1.0
 20
0.0
 30
0.0
 11
1.0
 21
0.0
 31
0.0
  0
ENDBLK
  5
4E7
330
4E4
100
AcDbEntity
  8
0
 62
     1
100
AcDbBlockEnd
  0
ENDSEC
  0
SECTION
  2
ENTITIES
  0
TEXT
  5
14D
330
22
100
AcDbEntity
  8
126
  6
Continuous
 62
     3
100
AcDbText
 10
32.082313
 20
2.1072326
 30
0.0
 40
0.08
  1
MANUFACTURING CO.
 41
1.5854341
 51
359.9999958057
100
AcDbText
  0
TEXT
  5
14E
330
22
100
AcDbEntity
  8
126
  6
Continuous
 62
     3
100
AcDbText
 10
30.51829000000001
 20
1.924854399999999
 30
0.0
 40
0.06
  1
2700 SOUTH 17TH AVENUE   BROADVIEW, ILLINOIS 60153
 41
1.1409523
 51
359.9999958057
100
AcDbText
  0
TEXT
  5
14F
330
22
100
AcDbEntity
  8
126
  6
Continuous
 62
     3
100
AcDbText
 10
29.963896
 20
1.7686316
 30
0.0
 40
0.06
  1
TITLE
 41
1.047619
 51
359.9999958057
100
AcDbText
  0
TEXT
  5
150
330
22
100
AcDbEntity
  8
126
  6
Continuous
 62
     3
100
AcDbText
 10
29.9641
 20
1.235327499999999
 30
0.0
 40
0.06
  1
DRAWN BY
 41
1.047619
 51
359.9999958057
100
AcDbText
  0
TEXT
  5
151
330
22
100
AcDbEntity
  8
126
  6
Continuous
 62
     3
100
AcDbText
 10
31.468802
 20
1.236053899999999
 30
0.0
 40
0.06
  1
CHK'D. BY
 41
1.047619099999999
 51
359.9999958057
100
AcDbText
  0
TEXT
  5
152
330
22
100
AcDbEntity
  8
126
  6
Continuous
 62
     3
100
AcDbText
 10
31.467594
 20
0.9538664
 30
0.0
 40
0.06
  1
APP'D.
 41
1.0476189
 51
359.9999958057
100
AcDbText
  0
TEXT
  5
153
330
22
100
AcDbEntity
  8
126
  6
Continuous
 62
     3
100
AcDbText
 10
31.465712
 20
0.6732580000000002
 30
0.0
 40
0.06
  1
DATE
 41
1.047619199999998
 51
359.9999958057
100
AcDbText
  0
TEXT
  5
154
330
22
100
AcDbEntity
  8
126
  6
Continuous
 62
     3
100
AcDbText
 10
32.965118
 20
1.2349718
 30
0.0
 40
0.06
  1
SCALE
 41
1.047619
 51
359.9999958057
100
AcDbText
  0
TEXT
  5
155
330
22
100
AcDbEntity
  8
126
  6
Continuous
 62
     3
100
AcDbText
 10
32.96685
 20
0.9536091999999998
 30
0.0
 40
0.06
  1
DRAWING NO.
 41
1.0476189
 51
359.9999958057
100
AcDbText
  0
TEXT
  5
156
330
22
100
AcDbEntity
  8
126
  6
Continuous
 62
     3
100
AcDbText
 10
28.31226500000001
 20
0.9546839999999999
 30
0.0
 40
0.06
  1
MATERIAL
 41
1.047619
 51
359.9999958057
100
AcDbText
  0
TEXT
  5
157
330
22
100
AcDbEntity
  8
126
  6
Continuous
 62
     3
100
AcDbText
 10
28.570663
 20
2.3154557
 30
0.0
 40
0.1
  1
TOLERANCES
 41
1.047619099999999
 51
359.9999958057
100
AcDbText
  0
TEXT
  5
158
330
22
100
AcDbEntity
  8
126
  6
Continuous
 62
     3
100
AcDbText
 10
28.623045
 20
2.1440272
 30
0.0
 40
0.1
  1
EXCEPT AS
 41
1.047619099999999
 51
359.9999958057
100
AcDbText
  0
TEXT
  5
159
330
22
100
AcDbEntity
  8
126
  6
Continuous
 62
     3
100
AcDbText
 10
28.832567
 20
1.972598699999999
 30
0.0
 40
0.1
  1
NOTED
 41
1.047619199999998
 51
359.9999958057
100
AcDbText
  0
TEXT
  5
15A
330
22
100
AcDbEntity
  8
126
  6
Continuous
 62
     3
100
AcDbText
 10
29.42646
 20
1.567900799999999
 30
0.0
 40
0.1
  1
.032
 41
1.047619
 51
359.9999958057
100
AcDbText
  0
TEXT
  5
15B
330
22
100
AcDbEntity
  8
126
  6
Continuous
 62
     3
100
AcDbText
 10
29.691111
 20
1.283120599999999
 30
0.0
 40
0.056
  1
1
 41
0.9428571399999999
 51
359.9999958057
100
AcDbText
  0
TEXT
  5
15C
330
22
100
AcDbEntity
  8
126
  6
Continuous
 62
     3
100
AcDbText
 10
29.691111
 20
1.1771207
 30
0.0
 40
0.056
  1
2
 41
0.9428571399999999
 51
359.9999958057
100
AcDbText
  0
TEXT
  5
15D
330
22
100
AcDbEntity
  8
126
  6
Continuous
 62
     3
100
AcDbText
 10
29.691111
 20
1.2081203
 30
0.0
 40
0.1
  1
-
 41
0.5280000000000002
100
AcDbText
  0
TEXT
  5
15E
330
22
100
AcDbEntity
  8
126
  6
Continuous
 62
     3
100
AcDbText
 10
29.78311
 20
1.2081203
 30
0.0
 40
0.1
  1
€
 41
1.047619
 51
359.9999958057
100
AcDbText
  0
TEXT
  5
15F
330
22
100
AcDbEntity
  8
126
  6
Continuous
 62
     3
100
AcDbText
 10
28.31674000000001
 20
1.567900799999999
 30
0.0
 40
0.1
  1
3 PL.DEC.
 41
1.047619099999999
 51
359.9999958057
100
AcDbText
  0
TEXT
  5
160
330
22
100
AcDbEntity
  8
126
  6
Continuous
 62
     3
100
AcDbText
 10
28.31674000000001
 20
1.208120599999998
 30
0.0
 40
0.1
  1
ANGLES
 41
1.047619199999998
 51
359.9999958057
100
AcDbText
  0
TEXT
  5
161
330
22
100
AcDbEntity
  8
126
  6
Continuous
 62
     3
100
AcDbText
 10
29.311384
 20
1.565628899999999
 30
0.0
 40
0.1875
  1

 41
0.4
 51
359.9999958057
100
AcDbText
  0
TEXT
  5
162
330
22
100
AcDbEntity
  8
126
  6
Continuous
 62
     3
100
AcDbText
 10
29.508293
 20
1.184218899999998
 30
0.0
 40
0.1875
  1

 41
0.4
 51
359.9999958057
100
AcDbText
  0
LINE
  5
163
330
22
100
AcDbEntity
  8
180
  6
Continuous
 62
     6
100
AcDbLine
 10
29.936756
 20
2.492107199999999
 30
0.0
 11
29.936756
 21
1.054607
 31
0.0
  0
LINE
  5
164
330
22
100
AcDbEntity
  8
180
  6
Continuous
 62
     6
100
AcDbLine
 10
0.4964675900000002
 20
22.490792
 30
0.0
 11
0.4964675900000002
 21
0.49079156
 31
0.0
  0
LINE
  5
165
330
22
100
AcDbEntity
  8
180
  6
Continuous
 62
     6
100
AcDbLine
 10
34.496468
 20
22.490792
 30
0.0
 11
34.496468
 21
0.49079156
 31
0.0
  0
LINE
  5
166
330
22
100
AcDbEntity
  8
180
  6
Continuous
 62
     6
100
AcDbLine
 10
34.499256
 20
0.49079156
 30
0.0
 11
0.4964675900000002
 21
0.49079156
 31
0.0
  0
LINE
  5
167
330
22
100
AcDbEntity
  8
180
  6
Continuous
 62
     6
100
AcDbLine
 10
34.499256
 20
22.490792
 30
0.0
 11
0.4964675900000002
 21
22.490792
 31
0.0
  0
LINE
  5
168
330
22
100
AcDbEntity
  8
126
  6
Continuous
 62
     3
100
AcDbLine
 10
31.922178
 20
2.276058
 30
0.0
 11
31.926901
 21
2.271335399999999
 31
0.0
  0
LINE
  5
169
330
22
100
AcDbEntity
  8
126
  6
Continuous
 62
     3
100
AcDbLine
 10
31.911129
 20
2.276058
 30
0.0
 11
31.920574
 21
2.266612499999999
 31
0.0
  0
LINE
  5
16A
330
22
100
AcDbEntity
  8
126
  6
Continuous
 62
     3
100
AcDbLine
 10
31.90008
 20
2.276058
 30
0.0
 11
31.914249
 21
2.261889899999999
 31
0.0
  0
LINE
  5
16B
330
22
100
AcDbEntity
  8
126
  6
Continuous
 62
     3
100
AcDbLine
 10
31.889032
 20
2.276058
 30
0.0
 11
31.907923
 21
2.2571671
 31
0.0
  0
LINE
  5
16C
330
22
100
AcDbEntity
  8
126
  6
Continuous
 62
     3
100
AcDbLine
 10
31.877983
 20
2.276058
 30
0.0
 11
31.901596
 21
2.2524443
 31
0.0
  0
LINE
  5
16D
330
22
100
AcDbEntity
  8
126
  6
Continuous
 62
     3
100
AcDbLine
 10
31.869103
 20
2.2738907
 30
0.0
 11
31.895271
 21
2.2477217
 31
0.0
  0
LINE
  5
16E
330
22
100
AcDbEntity
  8
126
  6
Continuous
 62
     3
100
AcDbLine
 10
31.862776
 20
2.269167899999998
 30
0.0
 11
31.888945
 21
2.242998799999999
 31
0.0
  0
LINE
  5
16F
330
22
100
AcDbEntity
  8
126
  6
Continuous
 62
     3
100
AcDbLine
 10
31.856451
 20
2.2644451
 30
0.0
 11
31.88262
 21
2.2382762
 31
0.0
  0
LINE
  5
170
330
22
100
AcDbEntity
  8
126
  6
Continuous
 62
     3
100
AcDbLine
 10
31.850124
 20
2.259722499999999
 30
0.0
 11
31.876293
 21
2.233553399999999
 31
0.0
  0
LINE
  5
171
330
22
100
AcDbEntity
  8
126
  6
Continuous
 62
     3
100
AcDbLine
 10
31.8438
 20
2.2549996
 30
0.0
 11
31.869968
 21
2.228830799999999
 31
0.0
  0
LINE
  5
172
330
22
100
AcDbEntity
  8
126
  6
Continuous
 62
     3
100
AcDbLine
 10
31.837473
 20
2.250277
 30
0.0
 11
31.863642
 21
2.224108
 31
0.0
  0
LINE
  5
173
330
22
100
AcDbEntity
  8
126
  6
Continuous
 62
     3
100
AcDbLine
 10
31.831146
 20
2.245554199999999
 30
0.0
 11
31.857317
 21
2.219385399999999
 31
0.0
  0
LINE
  5
174
330
22
100
AcDbEntity
  8
126
  6
Continuous
 62
     3
100
AcDbLine
 10
31.824821
 20
2.2408316
 30
0.0
 11
31.85099000000001
 21
2.2146626
 31
0.0
  0
LINE
  5
175
330
22
100
AcDbEntity
  8
126
  6
Continuous
 62
     3
100
AcDbLine
 10
31.818495
 20
2.236108799999998
 30
0.0
 11
31.844664
 21
2.20994
 31
0.0
  0
LINE
  5
176
330
22
100
AcDbEntity
  8
126
  6
Continuous
 62
     3
100
AcDbLine
 10
31.81217
 20
2.2313862
 30
0.0
 11
31.838339
 21
2.2052171
 31
0.0
  0
LINE
  5
177
330
22
100
AcDbEntity
  8
126
  6
Continuous
 62
     3
100
AcDbLine
 10
31.805843
 20
2.226663399999999
 30
0.0
 11
31.832012
 21
2.200494299999999
 31
0.0
  0
LINE
  5
178
330
22
100
AcDbEntity
  8
126
  6
Continuous
 62
     3
100
AcDbLine
 10
31.799519
 20
2.2219405
 30
0.0
 11
31.825687
 21
2.195771699999998
 31
0.0
  0
LINE
  5
179
330
22
100
AcDbEntity
  8
126
  6
Continuous
 62
     3
100
AcDbLine
 10
31.793192
 20
2.2172179
 30
0.0
 11
31.819361
 21
2.191048899999999
 31
0.0
  0
LINE
  5
17A
330
22
100
AcDbEntity
  8
126
  6
Continuous
 62
     3
100
AcDbLine
 10
31.786867
 20
2.212495099999999
 30
0.0
 11
31.813036
 21
2.186326299999999
 31
0.0
  0
LINE
  5
17B
330
22
100
AcDbEntity
  8
126
  6
Continuous
 62
     3
100
AcDbLine
 10
31.780541
 20
2.207772499999999
 30
0.0
 11
31.806709
 21
2.181603399999999
 31
0.0
  0
LINE
  5
17C
330
22
100
AcDbEntity
  8
126
  6
Continuous
 62
     3
100
AcDbLine
 10
31.774216
 20
2.2030497
 30
0.0
 11
31.800385
 21
2.176880799999999
 31
0.0
  0
LINE
  5
17D
330
22
100
AcDbEntity
  8
126
  6
Continuous
 62
     3
100
AcDbLine
 10
31.767889
 20
2.1983271
 30
0.0
 11
31.794058
 21
2.172158
 31
0.0
  0
LINE
  5
17E
330
22
100
AcDbEntity
  8
126
  6
Continuous
 62
     3
100
AcDbLine
 10
31.761562
 20
2.1936042
 30
0.0
 11
31.787733
 21
2.1674354
 31
0.0
  0
LINE
  5
17F
330
22
100
AcDbEntity
  8
126
  6
Continuous
 62
     3
100
AcDbLine
 10
31.66806
 20
2.276058
 30
0.0
 11
31.781406
 21
2.162712599999998
 31
0.0
  0
LINE
  5
180
330
22
100
AcDbEntity
  8
126
  6
Continuous
 62
     3
100
AcDbLine
 10
31.657013
 20
2.276058
 30
0.0
 11
31.777937
 21
2.155133499999998
 31
0.0
  0
LINE
  5
181
330
22
100
AcDbEntity
  8
126
  6
Continuous
 62
     3
100
AcDbLine
 10
31.64596400000001
 20
2.276058
 30
0.0
 11
31.776281
 21
2.145741
 31
0.0
  0
LINE
  5
182
330
22
100
AcDbEntity
  8
126
  6
Continuous
 62
     3
100
AcDbLine
 10
31.634914
 20
2.276058
 30
0.0
 11
31.774624
 21
2.1363487
 31
0.0
  0
LINE
  5
183
330
22
100
AcDbEntity
  8
126
  6
Continuous
 62
     3
100
AcDbLine
 10
31.623867
 20
2.276058
 30
0.0
 11
31.772968
 21
2.126956199999999
 31
0.0
  0
LINE
  5
184
330
22
100
AcDbEntity
  8
126
  6
Continuous
 62
     3
100
AcDbLine
 10
31.612818
 20
2.276058
 30
0.0
 11
31.771313
 21
2.1175637
 31
0.0
  0
LINE
  5
185
330
22
100
AcDbEntity
  8
126
  6
Continuous
 62
     3
100
AcDbLine
 10
31.63118900000001
 20
2.246638799999999
 30
0.0
 11
31.769657
 21
2.1081715
 31
0.0
  0
LINE
  5
186
330
22
100
AcDbEntity
  8
126
  6
Continuous
 62
     3
100
AcDbLine
 10
31.720631
 20
2.1461482
 30
0.0
 11
31.768
 21
2.098778999999999
 31
0.0
  0
LINE
  5
187
330
22
100
AcDbEntity
  8
126
  6
Continuous
 62
     3
100
AcDbLine
 10
31.718975
 20
2.1367557
 30
0.0
 11
31.766344
 21
2.089386699999999
 31
0.0
  0
LINE
  5
188
330
22
100
AcDbEntity
  8
126
  6
Continuous
 62
     3
100
AcDbLine
 10
31.568624
 20
2.276058
 30
0.0
 11
31.577021
 21
2.267661799999999
 31
0.0
  0
LINE
  5
189
330
22
100
AcDbEntity
  8
126
  6
Continuous
 62
     3
100
AcDbLine
 10
31.717319
 20
2.1273632
 30
0.0
 11
31.75705300000001
 21
2.087628599999999
 31
0.0
  0
LINE
  5
18A
330
22
100
AcDbEntity
  8
126
  6
Continuous
 62
     3
100
AcDbLine
 10
31.557575
 20
2.276058
 30
0.0
 11
31.58747700000001
 21
2.246156
 31
0.0
  0
LINE
  5
18B
330
22
100
AcDbEntity
  8
126
  6
Continuous
 62
     3
100
AcDbLine
 10
31.715662
 20
2.117970899999999
 30
0.0
 11
31.746004
 21
2.087628599999999
 31
0.0
  0
LINE
  5
18C
330
22
100
AcDbEntity
  8
126
  6
Continuous
 62
     3
100
AcDbLine
 10
31.546528
 20
2.276058
 30
0.0
 11
31.597935
 21
2.2246499
 31
0.0
  0
LINE
  5
18D
330
22
100
AcDbEntity
  8
126
  6
Continuous
 62
     3
100
AcDbLine
 10
31.714006
 20
2.108578399999998
 30
0.0
 11
31.734957
 21
2.087628599999999
 31
0.0
  0
LINE
  5
18E
330
22
100
AcDbEntity
  8
126
  6
Continuous
 62
     3
100
AcDbLine
 10
31.535479
 20
2.276058
 30
0.0
 11
31.608393
 21
2.2031441
 31
0.0
  0
LINE
  5
18F
330
22
100
AcDbEntity
  8
126
  6
Continuous
 62
     3
100
AcDbLine
 10
31.712351
 20
2.0991859
 30
0.0
 11
31.723907
 21
2.087628599999999
 31
0.0
  0
LINE
  5
190
330
22
100
AcDbEntity
  8
126
  6
Continuous
 62
     3
100
AcDbLine
 10
31.524429
 20
2.276058
 30
0.0
 11
31.618851
 21
2.181637999999999
 31
0.0
  0
LINE
  5
191
330
22
100
AcDbEntity
  8
126
  6
Continuous
 62
     3
100
AcDbLine
 10
31.710693
 20
2.089793699999999
 30
0.0
 11
31.71286
 21
2.087628599999999
 31
0.0
  0
LINE
  5
192
330
22
100
AcDbEntity
  8
126
  6
Continuous
 62
     3
100
AcDbLine
 10
31.513382
 20
2.276058
 30
0.0
 11
31.629307
 21
2.1601322
 31
0.0
  0
LINE
  5
193
330
22
100
AcDbEntity
  8
126
  6
Continuous
 62
     3
100
AcDbLine
 10
31.502333
 20
2.276058
 30
0.0
 11
31.517143
 21
2.261246899999999
 31
0.0
  0
LINE
  5
194
330
22
100
AcDbEntity
  8
126
  6
Continuous
 62
     3
100
AcDbLine
 10
31.520992
 20
2.2573986
 30
0.0
 11
31.639765
 21
2.1386261
 31
0.0
  0
LINE
  5
195
330
22
100
AcDbEntity
  8
126
  6
Continuous
 62
     3
100
AcDbLine
 10
31.491283
 20
2.276058
 30
0.0
 11
31.511988
 21
2.255354399999998
 31
0.0
  0
LINE
  5
196
330
22
100
AcDbEntity
  8
126
  6
Continuous
 62
     3
100
AcDbLine
 10
31.53145
 20
2.235892799999998
 30
0.0
 11
31.650223
 21
2.117120299999998
 31
0.0
  0
LINE
  5
197
330
22
100
AcDbEntity
  8
126
  6
Continuous
 62
     3
100
AcDbLine
 10
31.480877
 20
2.2754171
 30
0.0
 11
31.506832
 21
2.2494619
 31
0.0
  0
LINE
  5
198
330
22
100
AcDbEntity
  8
126
  6
Continuous
 62
     3
100
AcDbLine
 10
31.541906
 20
2.2143867
 30
0.0
 11
31.660679
 21
2.095614199999999
 31
0.0
  0
LINE
  5
199
330
22
100
AcDbEntity
  8
126
  6
Continuous
 62
     3
100
AcDbLine
 10
31.475721
 20
2.2695246
 30
0.0
 11
31.501677
 21
2.2435691
 31
0.0
  0
LINE
  5
19A
330
22
100
AcDbEntity
  8
126
  6
Continuous
 62
     3
100
AcDbLine
 10
31.552364
 20
2.192880899999999
 30
0.0
 11
31.657616
 21
2.087628599999999
 31
0.0
  0
LINE
  5
19B
330
22
100
AcDbEntity
  8
126
  6
Continuous
 62
     3
100
AcDbLine
 10
31.470564
 20
2.263631799999999
 30
0.0
 11
31.496519
 21
2.237676599999999
 31
0.0
  0
LINE
  5
19C
330
22
100
AcDbEntity
  8
126
  6
Continuous
 62
     3
100
AcDbLine
 10
31.562822
 20
2.1713748
 30
0.0
 11
31.646568
 21
2.087628599999999
 31
0.0
  0
LINE
  5
19D
330
22
100
AcDbEntity
  8
126
  6
Continuous
 62
     3
100
AcDbLine
 10
31.465408
 20
2.257739299999999
 30
0.0
 11
31.491363
 21
2.2317841
 31
0.0
  0
LINE
  5
19E
330
22
100
AcDbEntity
  8
126
  6
Continuous
 62
     3
100
AcDbLine
 10
31.572519
 20
2.1506286
 30
0.0
 11
31.635519
 21
2.087628599999999
 31
0.0
  0
LINE
  5
19F
330
22
100
AcDbEntity
  8
126
  6
Continuous
 62
     3
100
AcDbLine
 10
31.460253
 20
2.251846799999999
 30
0.0
 11
31.486208
 21
2.2258916
 31
0.0
  0
LINE
  5
1A0
330
22
100
AcDbEntity
  8
126
  6
Continuous
 62
     3
100
AcDbLine
 10
31.56147
 20
2.1506286
 30
0.0
 11
31.624472
 21
2.087628599999999
 31
0.0
  0
LINE
  5
1A1
330
22
100
AcDbEntity
  8
126
  6
Continuous
 62
     3
100
AcDbLine
 10
31.455097
 20
2.245954299999999
 30
0.0
 11
31.481052
 21
2.219998799999999
 31
0.0
  0
LINE
  5
1A2
330
22
100
AcDbEntity
  8
126
  6
Continuous
 62
     3
100
AcDbLine
 10
31.550423
 20
2.1506286
 30
0.0
 11
31.576798
 21
2.1242537
 31
0.0
  0
LINE
  5
1A3
330
22
100
AcDbEntity
  8
126
  6
Continuous
 62
     3
100
AcDbLine
 10
31.594194
 20
2.1068571
 30
0.0
 11
31.613422
 21
2.087628599999999
 31
0.0
  0
LINE
  5
1A4
330
22
100
AcDbEntity
  8
126
  6
Continuous
 62
     3
100
AcDbLine
 10
31.449942
 20
2.240061799999998
 30
0.0
 11
31.475897
 21
2.214106299999999
 31
0.0
  0
LINE
  5
1A5
330
22
100
AcDbEntity
  8
126
  6
Continuous
 62
     3
100
AcDbLine
 10
31.539373
 20
2.1506286
 30
0.0
 11
31.565748
 21
2.1242537
 31
0.0
  0
LINE
  5
1A6
330
22
100
AcDbEntity
  8
126
  6
Continuous
 62
     3
100
AcDbLine
 10
31.44478400000001
 20
2.234169
 30
0.0
 11
31.470739
 21
2.208213799999998
 31
0.0
  0
LINE
  5
1A7
330
22
100
AcDbEntity
  8
126
  6
Continuous
 62
     3
100
AcDbLine
 10
31.528326
 20
2.1506286
 30
0.0
 11
31.554701
 21
2.1242537
 31
0.0
  0
LINE
  5
1A8
330
22
100
AcDbEntity
  8
126
  6
Continuous
 62
     3
100
AcDbLine
 10
31.439629
 20
2.228276499999999
 30
0.0
 11
31.465584
 21
2.202321299999999
 31
0.0
  0
LINE
  5
1A9
330
22
100
AcDbEntity
  8
126
  6
Continuous
 62
     3
100
AcDbLine
 10
31.517277
 20
2.1506286
 30
0.0
 11
31.543652
 21
2.1242537
 31
0.0
  0
LINE
  5
1AA
330
22
100
AcDbEntity
  8
126
  6
Continuous
 62
     3
100
AcDbLine
 10
31.434473
 20
2.222383999999999
 30
0.0
 11
31.460428
 21
2.196428799999999
 31
0.0
  0
LINE
  5
1AB
330
22
100
AcDbEntity
  8
126
  6
Continuous
 62
     3
100
AcDbLine
 10
31.50622800000001
 20
2.1506286
 30
0.0
 11
31.532602
 21
2.1242537
 31
0.0
  0
LINE
  5
1AC
330
22
100
AcDbEntity
  8
126
  6
Continuous
 62
     3
100
AcDbLine
 10
31.429318
 20
2.2164915
 30
0.0
 11
31.455273
 21
2.190536
 31
0.0
  0
LINE
  5
1AD
330
22
100
AcDbEntity
  8
126
  6
Continuous
 62
     3
100
AcDbLine
 10
31.49518
 20
2.1506286
 30
0.0
 11
31.521555
 21
2.1242537
 31
0.0
  0
LINE
  5
1AE
330
22
100
AcDbEntity
  8
126
  6
Continuous
 62
     3
100
AcDbLine
 10
31.42416
 20
2.2105987
 30
0.0
 11
31.450117
 21
2.184643499999999
 31
0.0
  0
LINE
  5
1AF
330
22
100
AcDbEntity
  8
126
  6
Continuous
 62
     3
100
AcDbLine
 10
31.484131
 20
2.1506286
 30
0.0
 11
31.510506
 21
2.1242537
 31
0.0
  0
LINE
  5
1B0
330
22
100
AcDbEntity
  8
126
  6
Continuous
 62
     3
100
AcDbLine
 10
31.419004
 20
2.2047062
 30
0.0
 11
31.44496
 21
2.178750999999999
 31
0.0
  0
LINE
  5
1B1
330
22
100
AcDbEntity
  8
126
  6
Continuous
 62
     3
100
AcDbLine
 10
31.473082
 20
2.1506286
 30
0.0
 11
31.499458
 21
2.1242537
 31
0.0
  0
LINE
  5
1B2
330
22
100
AcDbEntity
  8
126
  6
Continuous
 62
     3
100
AcDbLine
 10
31.413849
 20
2.1988137
 30
0.0
 11
31.439804
 21
2.172858499999998
 31
0.0
  0
LINE
  5
1B3
330
22
100
AcDbEntity
  8
126
  6
Continuous
 62
     3
100
AcDbLine
 10
31.462034
 20
2.1506286
 30
0.0
 11
31.48840900000001
 21
2.1242537
 31
0.0
  0
LINE
  5
1B4
330
22
100
AcDbEntity
  8
126
  6
Continuous
 62
     3
100
AcDbLine
 10
31.325556
 20
2.276058
 30
0.0
 11
31.328541
 21
2.2730742
 31
0.0
  0
LINE
  5
1B5
330
22
100
AcDbEntity
  8
126
  6
Continuous
 62
     3
100
AcDbLine
 10
31.408693
 20
2.1929212
 30
0.0
 11
31.434649
 21
2.1669657
 31
0.0
  0
LINE
  5
1B6
330
22
100
AcDbEntity
  8
126
  6
Continuous
 62
     3
100
AcDbLine
 10
31.450985
 20
2.1506286
 30
0.0
 11
31.47736
 21
2.1242537
 31
0.0
  0
LINE
  5
1B7
330
22
100
AcDbEntity
  8
126
  6
Continuous
 62
     3
100
AcDbLine
 10
31.314508
 20
2.276058
 30
0.0
 11
31.321491
 21
2.2690752
 31
0.0
  0
LINE
  5
1B8
330
22
100
AcDbEntity
  8
126
  6
Continuous
 62
     3
100
AcDbLine
 10
31.403538
 20
2.1870286
 30
0.0
 11
31.429493
 21
2.1610732
 31
0.0
  0
LINE
  5
1B9
330
22
100
AcDbEntity
  8
126
  6
Continuous
 62
     3
100
AcDbLine
 10
31.439938
 20
2.1506286
 30
0.0
 11
31.466312
 21
2.1242537
 31
0.0
  0
LINE
  5
1BA
330
22
100
AcDbEntity
  8
126
  6
Continuous
 62
     3
100
AcDbLine
 10
31.303459
 20
2.276058
 30
0.0
 11
31.314442
 21
2.2650762
 31
0.0
  0
LINE
  5
1BB
330
22
100
AcDbEntity
  8
126
  6
Continuous
 62
     3
100
AcDbLine
 10
31.39838
 20
2.1811359
 30
0.0
 11
31.424336
 21
2.1551807
 31
0.0
  0
LINE
  5
1BC
330
22
100
AcDbEntity
  8
126
  6
Continuous
 62
     3
100
AcDbLine
 10
31.428888
 20
2.1506286
 30
0.0
 11
31.455263
 21
2.1242537
 31
0.0
  0
LINE
  5
1BD
330
22
100
AcDbEntity
  8
126
  6
Continuous
 62
     3
100
AcDbLine
 10
31.29241
 20
2.276058
 30
0.0
 11
31.307392
 21
2.261076899999999
 31
0.0
  0
LINE
  5
1BE
330
22
100
AcDbEntity
  8
126
  6
Continuous
 62
     3
100
AcDbLine
 10
31.393225
 20
2.175243399999998
 30
0.0
 11
31.44421400000001
 21
2.1242537
 31
0.0
  0
LINE
  5
1BF
330
22
100
AcDbEntity
  8
126
  6
Continuous
 62
     3
100
AcDbLine
 10
31.281363
 20
2.276058
 30
0.0
 11
31.300343
 21
2.2570779
 31
0.0
  0
LINE
  5
1C0
330
22
100
AcDbEntity
  8
126
  6
Continuous
 62
     3
100
AcDbLine
 10
31.388069
 20
2.169350899999999
 30
0.0
 11
31.433166
 21
2.1242537
 31
0.0
  0
LINE
  5
1C1
330
22
100
AcDbEntity
  8
126
  6
Continuous
 62
     3
100
AcDbLine
 10
31.270313
 20
2.276058
 30
0.0
 11
31.293293
 21
2.2530789
 31
0.0
  0
LINE
  5
1C2
330
22
100
AcDbEntity
  8
126
  6
Continuous
 62
     3
100
AcDbLine
 10
31.382914
 20
2.163458299999998
 30
0.0
 11
31.422117
 21
2.1242537
 31
0.0
  0
LINE
  5
1C3
330
22
100
AcDbEntity
  8
126
  6
Continuous
 62
     3
100
AcDbLine
 10
31.259376
 20
2.2759466
 30
0.0
 11
31.286243
 21
2.249079899999999
 31
0.0
  0
LINE
  5
1C4
330
22
100
AcDbEntity
  8
126
  6
Continuous
 62
     3
100
AcDbLine
 10
31.377758
 20
2.1575656
 30
0.0
 11
31.41107
 21
2.1242537
 31
0.0
  0
LINE
  5
1C5
330
22
100
AcDbEntity
  8
126
  6
Continuous
 62
     3
100
AcDbLine
 10
31.252327
 20
2.2719476
 30
0.0
 11
31.279194
 21
2.245080699999999
 31
0.0
  0
LINE
  5
1C6
330
22
100
AcDbEntity
  8
126
  6
Continuous
 62
     3
100
AcDbLine
 10
31.372601
 20
2.1516731
 30
0.0
 11
31.400021
 21
2.1242537
 31
0.0
  0
LINE
  5
1C7
330
22
100
AcDbEntity
  8
126
  6
Continuous
 62
     3
100
AcDbLine
 10
31.245277
 20
2.267948399999998
 30
0.0
 11
31.272144
 21
2.2410817
 31
0.0
  0
LINE
  5
1C8
330
22
100
AcDbEntity
  8
126
  6
Continuous
 62
     3
100
AcDbLine
 10
31.367445
 20
2.1457806
 30
0.0
 11
31.3934
 21
2.119825399999998
 31
0.0
  0
LINE
  5
1C9
330
22
100
AcDbEntity
  8
126
  6
Continuous
 62
     3
100
AcDbLine
 10
31.23822800000001
 20
2.2639494
 30
0.0
 11
31.265095
 21
2.2370827
 31
0.0
  0
LINE
  5
1CA
330
22
100
AcDbEntity
  8
126
  6
Continuous
 62
     3
100
AcDbLine
 10
31.362289
 20
2.139888
 30
0.0
 11
31.388245
 21
2.1139326
 31
0.0
  0
LINE
  5
1CB
330
22
100
AcDbEntity
  8
126
  6
Continuous
 62
     3
100
AcDbLine
 10
31.23117800000001
 20
2.2599504
 30
0.0
 11
31.258045
 21
2.2330837
 31
0.0
  0
LINE
  5
1CC
330
22
100
AcDbEntity
  8
126
  6
Continuous
 62
     3
100
AcDbLine
 10
31.357134
 20
2.1339955
 30
0.0
 11
31.383089
 21
2.1080401
 31
0.0
  0
LINE
  5
1CD
330
22
100
AcDbEntity
  8
126
  6
Continuous
 62
     3
100
AcDbLine
 10
31.224129
 20
2.255951399999998
 30
0.0
 11
31.250996
 21
2.2290847
 31
0.0
  0
LINE
  5
1CE
330
22
100
AcDbEntity
  8
126
  6
Continuous
 62
     3
100
AcDbLine
 10
31.351976
 20
2.128102799999999
 30
0.0
 11
31.377932
 21
2.1021476
 31
0.0
  0
LINE
  5
1CF
330
22
100
AcDbEntity
  8
126
  6
Continuous
 62
     3
100
AcDbLine
 10
31.217079
 20
2.251952399999999
 30
0.0
 11
31.243946
 21
2.2250855
 31
0.0
  0
LINE
  5
1D0
330
22
100
AcDbEntity
  8
126
  6
Continuous
 62
     3
100
AcDbLine
 10
31.346821
 20
2.122210299999998
 30
0.0
 11
31.372776
 21
2.0962551
 31
0.0
  0
LINE
  5
1D1
330
22
100
AcDbEntity
  8
126
  6
Continuous
 62
     3
100
AcDbLine
 10
31.21003
 20
2.2479532
 30
0.0
 11
31.236897
 21
2.2210865
 31
0.0
  0
LINE
  5
1D2
330
22
100
AcDbEntity
  8
126
  6
Continuous
 62
     3
100
AcDbLine
 10
31.341665
 20
2.1163177
 30
0.0
 11
31.367621
 21
2.090362499999999
 31
0.0
  0
LINE
  5
1D3
330
22
100
AcDbEntity
  8
126
  6
Continuous
 62
     3
100
AcDbLine
 10
31.20298
 20
2.2439542
 30
0.0
 11
31.229847
 21
2.217087499999998
 31
0.0
  0
LINE
  5
1D4
330
22
100
AcDbEntity
  8
126
  6
Continuous
 62
     3
100
AcDbLine
 10
31.33651
 20
2.110425199999999
 30
0.0
 11
31.359306
 21
2.087628599999999
 31
0.0
  0
LINE
  5
1D5
330
22
100
AcDbEntity
  8
126
  6
Continuous
 62
     3
100
AcDbLine
 10
31.19593
 20
2.2399552
 30
0.0
 11
31.222797
 21
2.2130885
 31
0.0
  0
LINE
  5
1D6
330
22
100
AcDbEntity
  8
126
  6
Continuous
 62
     3
100
AcDbLine
 10
31.331354
 20
2.104532499999999
 30
0.0
 11
31.348257
 21
2.087628599999999
 31
0.0
  0
LINE
  5
1D7
330
22
100
AcDbEntity
  8
126
  6
Continuous
 62
     3
100
AcDbLine
 10
31.188881
 20
2.2359562
 30
0.0
 11
31.215748
 21
2.209089299999999
 31
0.0
  0
LINE
  5
1D8
330
22
100
AcDbEntity
  8
126
  6
Continuous
 62
     3
100
AcDbLine
 10
31.326197
 20
2.09864
 30
0.0
 11
31.337208
 21
2.087628599999999
 31
0.0
  0
LINE
  5
1D9
330
22
100
AcDbEntity
  8
126
  6
Continuous
 62
     3
100
AcDbLine
 10
31.181831
 20
2.231956999999999
 30
0.0
 11
31.208698
 21
2.205090299999999
 31
0.0
  0
LINE
  5
1DA
330
22
100
AcDbEntity
  8
126
  6
Continuous
 62
     3
100
AcDbLine
 10
31.321041
 20
2.092747399999999
 30
0.0
 11
31.32616
 21
2.087628599999999
 31
0.0
  0
LINE
  5
1DB
330
22
100
AcDbEntity
  8
126
  6
Continuous
 62
     3
100
AcDbLine
 10
31.174782
 20
2.227958
 30
0.0
 11
31.201649
 21
2.201091299999998
 31
0.0
  0
LINE
  5
1DC
330
22
100
AcDbEntity
  8
126
  6
Continuous
 62
     3
100
AcDbLine
 10
31.167732
 20
2.223958999999998
 30
0.0
 11
31.194599
 21
2.197092299999999
 31
0.0
  0
LINE
  5
1DD
330
22
100
AcDbEntity
  8
126
  6
Continuous
 62
     3
100
AcDbLine
 10
31.266342
 20
2.1253495
 30
0.0
 11
31.304064
 21
2.087628599999999
 31
0.0
  0
LINE
  5
1DE
330
22
100
AcDbEntity
  8
126
  6
Continuous
 62
     3
100
AcDbLine
 10
31.160683
 20
2.219959999999999
 30
0.0
 11
31.293015
 21
2.087628599999999
 31
0.0
  0
LINE
  5
1DF
330
22
100
AcDbEntity
  8
126
  6
Continuous
 62
     3
100
AcDbLine
 10
31.153633
 20
2.215961
 30
0.0
 11
31.281965
 21
2.087628599999999
 31
0.0
  0
LINE
  5
1E0
330
22
100
AcDbEntity
  8
126
  6
Continuous
 62
     3
100
AcDbLine
 10
31.082489
 20
2.276058
 30
0.0
 11
31.09139600000001
 21
2.2671494
 31
0.0
  0
LINE
  5
1E1
330
22
100
AcDbEntity
  8
126
  6
Continuous
 62
     3
100
AcDbLine
 10
31.14658400000001
 20
2.2119617
 30
0.0
 11
31.270918
 21
2.087628599999999
 31
0.0
  0
LINE
  5
1E2
330
22
100
AcDbEntity
  8
126
  6
Continuous
 62
     3
100
AcDbLine
 10
31.07144
 20
2.276058
 30
0.0
 11
31.089741
 21
2.257757199999999
 31
0.0
  0
LINE
  5
1E3
330
22
100
AcDbEntity
  8
126
  6
Continuous
 62
     3
100
AcDbLine
 10
31.139534
 20
2.207962799999998
 30
0.0
 11
31.259869
 21
2.087628599999999
 31
0.0
  0
LINE
  5
1E4
330
22
100
AcDbEntity
  8
126
  6
Continuous
 62
     3
100
AcDbLine
 10
31.060391
 20
2.276058
 30
0.0
 11
31.088085
 21
2.2483647
 31
0.0
  0
LINE
  5
1E5
330
22
100
AcDbEntity
  8
126
  6
Continuous
 62
     3
100
AcDbLine
 10
31.132484
 20
2.203963799999999
 30
0.0
 11
31.24882100000001
 21
2.087628599999999
 31
0.0
  0
LINE
  5
1E6
330
22
100
AcDbEntity
  8
126
  6
Continuous
 62
     3
100
AcDbLine
 10
31.049343
 20
2.276058
 30
0.0
 11
31.086428
 21
2.238972399999999
 31
0.0
  0
LINE
  5
1E7
330
22
100
AcDbEntity
  8
126
  6
Continuous
 62
     3
100
AcDbLine
 10
31.125435
 20
2.199964799999999
 30
0.0
 11
31.237772
 21
2.087628599999999
 31
0.0
  0
LINE
  5
1E8
330
22
100
AcDbEntity
  8
126
  6
Continuous
 62
     3
100
AcDbLine
 10
31.040424
 20
2.2739277
 30
0.0
 11
31.084772
 21
2.2295799
 31
0.0
  0
LINE
  5
1E9
330
22
100
AcDbEntity
  8
126
  6
Continuous
 62
     3
100
AcDbLine
 10
31.118387
 20
2.195965499999998
 30
0.0
 11
31.226723
 21
2.087628599999999
 31
0.0
  0
LINE
  5
1EA
330
22
100
AcDbEntity
  8
126
  6
Continuous
 62
     3
100
AcDbLine
 10
31.038769
 20
2.264535399999999
 30
0.0
 11
31.083116
 21
2.220187399999999
 31
0.0
  0
LINE
  5
1EB
330
22
100
AcDbEntity
  8
126
  6
Continuous
 62
     3
100
AcDbLine
 10
31.111338
 20
2.191966499999999
 30
0.0
 11
31.138203
 21
2.165099899999999
 31
0.0
  0
LINE
  5
1EC
330
22
100
AcDbEntity
  8
126
  6
Continuous
 62
     3
100
AcDbLine
 10
31.037111
 20
2.2551429
 30
0.0
 11
31.081459
 21
2.2107952
 31
0.0
  0
LINE
  5
1ED
330
22
100
AcDbEntity
  8
126
  6
Continuous
 62
     3
100
AcDbLine
 10
31.104288
 20
2.1879675
 30
0.0
 11
31.131155
 21
2.161100899999999
 31
0.0
  0
LINE
  5
1EE
330
22
100
AcDbEntity
  8
126
  6
Continuous
 62
     3
100
AcDbLine
 10
31.035456
 20
2.245750399999999
 30
0.0
 11
31.079804
 21
2.2014027
 31
0.0
  0
LINE
  5
1EF
330
22
100
AcDbEntity
  8
126
  6
Continuous
 62
     3
100
AcDbLine
 10
31.097239
 20
2.1839685
 30
0.0
 11
31.124105
 21
2.157101599999998
 31
0.0
  0
LINE
  5
1F0
330
22
100
AcDbEntity
  8
126
  6
Continuous
 62
     3
100
AcDbLine
 10
31.0338
 20
2.2363582
 30
0.0
 11
31.078148
 21
2.1920102
 31
0.0
  0
LINE
  5
1F1
330
22
100
AcDbEntity
  8
126
  6
Continuous
 62
     3
100
AcDbLine
 10
31.09018900000001
 20
2.179969499999999
 30
0.0
 11
31.117056
 21
2.153102599999999
 31
0.0
  0
LINE
  5
1F2
330
22
100
AcDbEntity
  8
126
  6
Continuous
 62
     3
100
AcDbLine
 10
31.032143
 20
2.2269657
 30
0.0
 11
31.076492
 21
2.182617899999999
 31
0.0
  0
LINE
  5
1F3
330
22
100
AcDbEntity
  8
126
  6
Continuous
 62
     3
100
AcDbLine
 10
31.08313900000001
 20
2.175970299999999
 30
0.0
 11
31.110006
 21
2.1491036
 31
0.0
  0
LINE
  5
1F4
330
22
100
AcDbEntity
  8
126
  6
Continuous
 62
     3
100
AcDbLine
 10
31.030487
 20
2.2175732
 30
0.0
 11
31.074835
 21
2.1732254
 31
0.0
  0
LINE
  5
1F5
330
22
100
AcDbEntity
  8
126
  6
Continuous
 62
     3
100
AcDbLine
 10
31.07609
 20
2.1719713
 30
0.0
 11
31.102957
 21
2.1451046
 31
0.0
  0
LINE
  5
1F6
330
22
100
AcDbEntity
  8
126
  6
Continuous
 62
     3
100
AcDbLine
 10
31.028831
 20
2.208180899999999
 30
0.0
 11
31.095907
 21
2.1411057
 31
0.0
  0
LINE
  5
1F7
330
22
100
AcDbEntity
  8
126
  6
Continuous
 62
     3
100
AcDbLine
 10
31.027176
 20
2.198788399999999
 30
0.0
 11
31.088858
 21
2.137106399999999
 31
0.0
  0
LINE
  5
1F8
330
22
100
AcDbEntity
  8
126
  6
Continuous
 62
     3
100
AcDbLine
 10
31.025518
 20
2.189396099999999
 30
0.0
 11
31.081808
 21
2.1331074
 31
0.0
  0
LINE
  5
1F9
330
22
100
AcDbEntity
  8
126
  6
Continuous
 62
     3
100
AcDbLine
 10
31.023863
 20
2.1800036
 30
0.0
 11
31.07475900000001
 21
2.129108399999998
 31
0.0
  0
LINE
  5
1FA
330
22
100
AcDbEntity
  8
126
  6
Continuous
 62
     3
100
AcDbLine
 10
31.022207
 20
2.170611099999999
 30
0.0
 11
31.06770900000001
 21
2.125109399999999
 31
0.0
  0
LINE
  5
1FB
330
22
100
AcDbEntity
  8
126
  6
Continuous
 62
     3
100
AcDbLine
 10
31.02055
 20
2.161218899999999
 30
0.0
 11
31.064898
 21
2.1168711
 31
0.0
  0
LINE
  5
1FC
330
22
100
AcDbEntity
  8
126
  6
Continuous
 62
     3
100
AcDbLine
 10
31.018894
 20
2.1518264
 30
0.0
 11
31.063242
 21
2.107478599999998
 31
0.0
  0
LINE
  5
1FD
330
22
100
AcDbEntity
  8
126
  6
Continuous
 62
     3
100
AcDbLine
 10
31.017239
 20
2.1424341
 30
0.0
 11
31.061586
 21
2.0980861
 31
0.0
  0
LINE
  5
1FE
330
22
100
AcDbEntity
  8
126
  6
Continuous
 62
     3
100
AcDbLine
 10
31.01558300000001
 20
2.1330416
 30
0.0
 11
31.059931
 21
2.088693899999999
 31
0.0
  0
LINE
  5
1FF
330
22
100
AcDbEntity
  8
126
  6
Continuous
 62
     3
100
AcDbLine
 10
31.013926
 20
2.1236491
 30
0.0
 11
31.049946
 21
2.087628599999999
 31
0.0
  0
LINE
  5
200
330
22
100
AcDbEntity
  8
126
  6
Continuous
 62
     3
100
AcDbLine
 10
31.01227
 20
2.114256899999999
 30
0.0
 11
31.038898
 21
2.087628599999999
 31
0.0
  0
LINE
  5
201
330
22
100
AcDbEntity
  8
126
  6
Continuous
 62
     3
100
AcDbLine
 10
31.010614
 20
2.104864399999998
 30
0.0
 11
31.027849
 21
2.087628599999999
 31
0.0
  0
LINE
  5
202
330
22
100
AcDbEntity
  8
126
  6
Continuous
 62
     3
100
AcDbLine
 10
31.00895700000001
 20
2.095471899999999
 30
0.0
 11
31.016802
 21
2.087628599999999
 31
0.0
  0
LINE
  5
203
330
22
100
AcDbEntity
  8
126
  6
Continuous
 62
     3
100
AcDbLine
 10
30.817324
 20
2.276058
 30
0.0
 11
30.82273900000001
 21
2.270641999999999
 31
0.0
  0
LINE
  5
204
330
22
100
AcDbEntity
  8
126
  6
Continuous
 62
     3
100
AcDbLine
 10
30.97837800000001
 20
2.1150036
 30
0.0
 11
30.98394600000001
 21
2.109436299999999
 31
0.0
  0
LINE
  5
205
330
22
100
AcDbEntity
  8
126
  6
Continuous
 62
     3
100
AcDbLine
 10
30.806274
 20
2.276058
 30
0.0
 11
30.821083
 21
2.261249799999998
 31
0.0
  0
LINE
  5
206
330
22
100
AcDbEntity
  8
126
  6
Continuous
 62
     3
100
AcDbLine
 10
30.967329
 20
2.1150036
 30
0.0
 11
30.982288
 21
2.100043799999999
 31
0.0
  0
LINE
  5
207
330
22
100
AcDbEntity
  8
126
  6
Continuous
 62
     3
100
AcDbLine
 10
30.795225
 20
2.276058
 30
0.0
 11
30.819428
 21
2.251857299999999
 31
0.0
  0
LINE
  5
208
330
22
100
AcDbEntity
  8
126
  6
Continuous
 62
     3
100
AcDbLine
 10
30.95628
 20
2.1150036
 30
0.0
 11
30.980633
 21
2.090651299999999
 31
0.0
  0
LINE
  5
209
330
22
100
AcDbEntity
  8
126
  6
Continuous
 62
     3
100
AcDbLine
 10
30.784178
 20
2.276058
 30
0.0
 11
30.81777
 21
2.242464799999999
 31
0.0
  0
LINE
  5
20A
330
22
100
AcDbEntity
  8
126
  6
Continuous
 62
     3
100
AcDbLine
 10
30.945232
 20
2.1150036
 30
0.0
 11
30.972607
 21
2.087628599999999
 31
0.0
  0
LINE
  5
20B
330
22
100
AcDbEntity
  8
126
  6
Continuous
 62
     3
100
AcDbLine
 10
30.773128
 20
2.276058
 30
0.0
 11
30.816114
 21
2.2330725
 31
0.0
  0
LINE
  5
20C
330
22
100
AcDbEntity
  8
126
  6
Continuous
 62
     3
100
AcDbLine
 10
30.934183
 20
2.1150036
 30
0.0
 11
30.961557
 21
2.087628599999999
 31
0.0
  0
LINE
  5
20D
330
22
100
AcDbEntity
  8
126
  6
Continuous
 62
     3
100
AcDbLine
 10
30.770111
 20
2.2680278
 30
0.0
 11
30.814459
 21
2.223679999999998
 31
0.0
  0
LINE
  5
20E
330
22
100
AcDbEntity
  8
126
  6
Continuous
 62
     3
100
AcDbLine
 10
30.923134
 20
2.1150036
 30
0.0
 11
30.95051
 21
2.087628599999999
 31
0.0
  0
LINE
  5
20F
330
22
100
AcDbEntity
  8
126
  6
Continuous
 62
     3
100
AcDbLine
 10
30.768454
 20
2.2586355
 30
0.0
 11
30.812801
 21
2.214287799999999
 31
0.0
  0
LINE
  5
210
330
22
100
AcDbEntity
  8
126
  6
Continuous
 62
     3
100
AcDbLine
 10
30.912087
 20
2.1150036
 30
0.0
 11
30.939461
 21
2.087628599999999
 31
0.0
  0
LINE
  5
211
330
22
100
AcDbEntity
  8
126
  6
Continuous
 62
     3
100
AcDbLine
 10
30.766798
 20
2.249242999999998
 30
0.0
 11
30.811146
 21
2.204895299999999
 31
0.0
  0
LINE
  5
212
330
22
100
AcDbEntity
  8
126
  6
Continuous
 62
     3
100
AcDbLine
 10
30.901037
 20
2.1150036
 30
0.0
 11
30.928413
 21
2.087628599999999
 31
0.0
  0
LINE
  5
213
330
22
100
AcDbEntity
  8
126
  6
Continuous
 62
     3
100
AcDbLine
 10
30.728935
 20
2.276058
 30
0.0
 11
30.730841
 21
2.2741516
 31
0.0
  0
LINE
  5
214
330
22
100
AcDbEntity
  8
126
  6
Continuous
 62
     3
100
AcDbLine
 10
30.765142
 20
2.239850799999999
 30
0.0
 11
30.80949
 21
2.195502799999998
 31
0.0
  0
LINE
  5
215
330
22
100
AcDbEntity
  8
126
  6
Continuous
 62
     3
100
AcDbLine
 10
30.88999
 20
2.1150036
 30
0.0
 11
30.917364
 21
2.087628599999999
 31
0.0
  0
LINE
  5
216
330
22
100
AcDbEntity
  8
126
  6
Continuous
 62
     3
100
AcDbLine
 10
30.717886
 20
2.276058
 30
0.0
 11
30.729185
 21
2.2647591
 31
0.0
  0
LINE
  5
217
330
22
100
AcDbEntity
  8
126
  6
Continuous
 62
     3
100
AcDbLine
 10
30.763487
 20
2.2304583
 30
0.0
 11
30.807835
 21
2.186110499999998
 31
0.0
  0
LINE
  5
218
330
22
100
AcDbEntity
  8
126
  6
Continuous
 62
     3
100
AcDbLine
 10
30.878941
 20
2.1150036
 30
0.0
 11
30.90631500000001
 21
2.087628599999999
 31
0.0
  0
LINE
  5
219
330
22
100
AcDbEntity
  8
126
  6
Continuous
 62
     3
100
AcDbLine
 10
30.706837
 20
2.276058
 30
0.0
 11
30.727529
 21
2.2553668
 31
0.0
  0
LINE
  5
21A
330
22
100
AcDbEntity
  8
126
  6
Continuous
 62
     3
100
AcDbLine
 10
30.761829
 20
2.221065799999998
 30
0.0
 11
30.806177
 21
2.176718
 31
0.0
  0
LINE
  5
21B
330
22
100
AcDbEntity
  8
126
  6
Continuous
 62
     3
100
AcDbLine
 10
30.867891
 20
2.1150036
 30
0.0
 11
30.895267
 21
2.087628599999999
 31
0.0
  0
LINE
  5
21C
330
22
100
AcDbEntity
  8
126
  6
Continuous
 62
     3
100
AcDbLine
 10
30.695789
 20
2.276058
 30
0.0
 11
30.723164
 21
2.248683
 31
0.0
  0
LINE
  5
21D
330
22
100
AcDbEntity
  8
126
  6
Continuous
 62
     3
100
AcDbLine
 10
30.760174
 20
2.211673499999998
 30
0.0
 11
30.804522
 21
2.1673257
 31
0.0
  0
LINE
  5
21E
330
22
100
AcDbEntity
  8
126
  6
Continuous
 62
     3
100
AcDbLine
 10
30.856844
 20
2.1150036
 30
0.0
 11
30.884218
 21
2.087628599999999
 31
0.0
  0
LINE
  5
21F
330
22
100
AcDbEntity
  8
126
  6
Continuous
 62
     3
100
AcDbLine
 10
30.68474
 20
2.276058
 30
0.0
 11
30.712116
 21
2.248683
 31
0.0
  0
LINE
  5
220
330
22
100
AcDbEntity
  8
126
  6
Continuous
 62
     3
100
AcDbLine
 10
30.758518
 20
2.202281
 30
0.0
 11
30.802866
 21
2.157933199999999
 31
0.0
  0
LINE
  5
221
330
22
100
AcDbEntity
  8
126
  6
Continuous
 62
     3
100
AcDbLine
 10
30.845795
 20
2.1150036
 30
0.0
 11
30.873169
 21
2.087628599999999
 31
0.0
  0
LINE
  5
222
330
22
100
AcDbEntity
  8
126
  6
Continuous
 62
     3
100
AcDbLine
 10
30.673693
 20
2.276058
 30
0.0
 11
30.701067
 21
2.248683
 31
0.0
  0
LINE
  5
223
330
22
100
AcDbEntity
  8
126
  6
Continuous
 62
     3
100
AcDbLine
 10
30.756861
 20
2.1928887
 30
0.0
 11
30.80120900000001
 21
2.1485407
 31
0.0
  0
LINE
  5
224
330
22
100
AcDbEntity
  8
126
  6
Continuous
 62
     3
100
AcDbLine
 10
30.834745
 20
2.1150036
 30
0.0
 11
30.862122
 21
2.087628599999999
 31
0.0
  0
LINE
  5
225
330
22
100
AcDbEntity
  8
126
  6
Continuous
 62
     3
100
AcDbLine
 10
30.662643
 20
2.276058
 30
0.0
 11
30.690018
 21
2.248683
 31
0.0
  0
LINE
  5
226
330
22
100
AcDbEntity
  8
126
  6
Continuous
 62
     3
100
AcDbLine
 10
30.755205
 20
2.1834962
 30
0.0
 11
30.799553
 21
2.1391485
 31
0.0
  0
LINE
  5
227
330
22
100
AcDbEntity
  8
126
  6
Continuous
 62
     3
100
AcDbLine
 10
30.823698
 20
2.1150036
 30
0.0
 11
30.851072
 21
2.087628599999999
 31
0.0
  0
LINE
  5
228
330
22
100
AcDbEntity
  8
126
  6
Continuous
 62
     3
100
AcDbLine
 10
30.651594
 20
2.276058
 30
0.0
 11
30.67897
 21
2.248683
 31
0.0
  0
LINE
  5
229
330
22
100
AcDbEntity
  8
126
  6
Continuous
 62
     3
100
AcDbLine
 10
30.75355
 20
2.174103699999998
 30
0.0
 11
30.797897
 21
2.129755999999999
 31
0.0
  0
LINE
  5
22A
330
22
100
AcDbEntity
  8
126
  6
Continuous
 62
     3
100
AcDbLine
 10
30.812649
 20
2.1150036
 30
0.0
 11
30.840025
 21
2.087628599999999
 31
0.0
  0
LINE
  5
22B
330
22
100
AcDbEntity
  8
126
  6
Continuous
 62
     3
100
AcDbLine
 10
30.640547
 20
2.276058
 30
0.0
 11
30.66792100000001
 21
2.248683
 31
0.0
  0
LINE
  5
22C
330
22
100
AcDbEntity
  8
126
  6
Continuous
 62
     3
100
AcDbLine
 10
30.751892
 20
2.1647115
 30
0.0
 11
30.79624
 21
2.120363499999998
 31
0.0
  0
LINE
  5
22D
330
22
100
AcDbEntity
  8
126
  6
Continuous
 62
     3
100
AcDbLine
 10
30.801601
 20
2.1150036
 30
0.0
 11
30.828976
 21
2.087628599999999
 31
0.0
  0
LINE
  5
22E
330
22
100
AcDbEntity
  8
126
  6
Continuous
 62
     3
100
AcDbLine
 10
30.629497
 20
2.276058
 30
0.0
 11
30.656874
 21
2.248683
 31
0.0
  0
LINE
  5
22F
330
22
100
AcDbEntity
  8
126
  6
Continuous
 62
     3
100
AcDbLine
 10
30.750237
 20
2.155318999999999
 30
0.0
 11
30.817926
 21
2.087628599999999
 31
0.0
  0
LINE
  5
230
330
22
100
AcDbEntity
  8
126
  6
Continuous
 62
     3
100
AcDbLine
 10
30.61845
 20
2.276058
 30
0.0
 11
30.645824
 21
2.248683
 31
0.0
  0
LINE
  5
231
330
22
100
AcDbEntity
  8
126
  6
Continuous
 62
     3
100
AcDbLine
 10
30.698914
 20
2.195593399999999
 30
0.0
 11
30.703489
 21
2.191017599999999
 31
0.0
  0
LINE
  5
232
330
22
100
AcDbEntity
  8
126
  6
Continuous
 62
     3
100
AcDbLine
 10
30.748581
 20
2.145926499999998
 30
0.0
 11
30.806879
 21
2.087628599999999
 31
0.0
  0
LINE
  5
233
330
22
100
AcDbEntity
  8
126
  6
Continuous
 62
     3
100
AcDbLine
 10
30.607401
 20
2.276058
 30
0.0
 11
30.634775
 21
2.248683
 31
0.0
  0
LINE
  5
234
330
22
100
AcDbEntity
  8
126
  6
Continuous
 62
     3
100
AcDbLine
 10
30.687866
 20
2.195593399999999
 30
0.0
 11
30.701834
 21
2.1816254
 31
0.0
  0
LINE
  5
235
330
22
100
AcDbEntity
  8
126
  6
Continuous
 62
     3
100
AcDbLine
 10
30.746925
 20
2.1365342
 30
0.0
 11
30.79583
 21
2.087628599999999
 31
0.0
  0
LINE
  5
236
330
22
100
AcDbEntity
  8
126
  6
Continuous
 62
     3
100
AcDbLine
 10
30.59635200000001
 20
2.276058
 30
0.0
 11
30.623728
 21
2.248683
 31
0.0
  0
LINE
  5
237
330
22
100
AcDbEntity
  8
126
  6
Continuous
 62
     3
100
AcDbLine
 10
30.676817
 20
2.195593399999999
 30
0.0
 11
30.700178
 21
2.172232899999999
 31
0.0
  0
LINE
  5
238
330
22
100
AcDbEntity
  8
126
  6
Continuous
 62
     3
100
AcDbLine
 10
30.745268
 20
2.1271417
 30
0.0
 11
30.784782
 21
2.087628599999999
 31
0.0
  0
LINE
  5
239
330
22
100
AcDbEntity
  8
126
  6
Continuous
 62
     3
100
AcDbLine
 10
30.585304
 20
2.276058
 30
0.0
 11
30.612679
 21
2.248683
 31
0.0
  0
LINE
  5
23A
330
22
100
AcDbEntity
  8
126
  6
Continuous
 62
     3
100
AcDbLine
 10
30.665768
 20
2.195593399999999
 30
0.0
 11
30.693268
 21
2.168093399999999
 31
0.0
  0
LINE
  5
23B
330
22
100
AcDbEntity
  8
126
  6
Continuous
 62
     3
100
AcDbLine
 10
30.743612
 20
2.117749499999999
 30
0.0
 11
30.773733
 21
2.087628599999999
 31
0.0
  0
LINE
  5
23C
330
22
100
AcDbEntity
  8
126
  6
Continuous
 62
     3
100
AcDbLine
 10
30.574255
 20
2.276058
 30
0.0
 11
30.601629
 21
2.248683
 31
0.0
  0
LINE
  5
23D
330
22
100
AcDbEntity
  8
126
  6
Continuous
 62
     3
100
AcDbLine
 10
30.65472
 20
2.195593399999999
 30
0.0
 11
30.682221
 21
2.168093399999999
 31
0.0
  0
LINE
  5
23E
330
22
100
AcDbEntity
  8
126
  6
Continuous
 62
     3
100
AcDbLine
 10
30.741957
 20
2.108356999999998
 30
0.0
 11
30.762684
 21
2.087628599999999
 31
0.0
  0
LINE
  5
23F
330
22
100
AcDbEntity
  8
126
  6
Continuous
 62
     3
100
AcDbLine
 10
30.563206
 20
2.276058
 30
0.0
 11
30.590582
 21
2.248683
 31
0.0
  0
LINE
  5
240
330
22
100
AcDbEntity
  8
126
  6
Continuous
 62
     3
100
AcDbLine
 10
30.643671
 20
2.195593399999999
 30
0.0
 11
30.671171
 21
2.168093399999999
 31
0.0
  0
LINE
  5
241
330
22
100
AcDbEntity
  8
126
  6
Continuous
 62
     3
100
AcDbLine
 10
30.740299
 20
2.0989645
 30
0.0
 11
30.751637
 21
2.087628599999999
 31
0.0
  0
LINE
  5
242
330
22
100
AcDbEntity
  8
126
  6
Continuous
 62
     3
100
AcDbLine
 10
30.552158
 20
2.276058
 30
0.0
 11
30.579533
 21
2.248683
 31
0.0
  0
LINE
  5
243
330
22
100
AcDbEntity
  8
126
  6
Continuous
 62
     3
100
AcDbLine
 10
30.632622
 20
2.195593399999999
 30
0.0
 11
30.660122
 21
2.168093399999999
 31
0.0
  0
LINE
  5
244
330
22
100
AcDbEntity
  8
126
  6
Continuous
 62
     3
100
AcDbLine
 10
30.713213
 20
2.1150036
 30
0.0
 11
30.71513400000001
 21
2.113082899999999
 31
0.0
  0
LINE
  5
245
330
22
100
AcDbEntity
  8
126
  6
Continuous
 62
     3
100
AcDbLine
 10
30.738644
 20
2.089572199999999
 30
0.0
 11
30.740587
 21
2.087628599999999
 31
0.0
  0
LINE
  5
246
330
22
100
AcDbEntity
  8
126
  6
Continuous
 62
     3
100
AcDbLine
 10
30.541109
 20
2.276058
 30
0.0
 11
30.568485
 21
2.248683
 31
0.0
  0
LINE
  5
247
330
22
100
AcDbEntity
  8
126
  6
Continuous
 62
     3
100
AcDbLine
 10
30.621574
 20
2.195593399999999
 30
0.0
 11
30.649075
 21
2.168093399999999
 31
0.0
  0
LINE
  5
248
330
22
100
AcDbEntity
  8
126
  6
Continuous
 62
     3
100
AcDbLine
 10
30.702164
 20
2.1150036
 30
0.0
 11
30.713476
 21
2.1036904
 31
0.0
  0
LINE
  5
249
330
22
100
AcDbEntity
  8
126
  6
Continuous
 62
     3
100
AcDbLine
 10
30.530062
 20
2.276058
 30
0.0
 11
30.557436
 21
2.248683
 31
0.0
  0
LINE
  5
24A
330
22
100
AcDbEntity
  8
126
  6
Continuous
 62
     3
100
AcDbLine
 10
30.610525
 20
2.195593399999999
 30
0.0
 11
30.638025
 21
2.168093399999999
 31
0.0
  0
LINE
  5
24B
330
22
100
AcDbEntity
  8
126
  6
Continuous
 62
     3
100
AcDbLine
 10
30.69111400000001
 20
2.1150036
 30
0.0
 11
30.711821
 21
2.0942981
 31
0.0
  0
LINE
  5
24C
330
22
100
AcDbEntity
  8
126
  6
Continuous
 62
     3
100
AcDbLine
 10
30.519012
 20
2.276058
 30
0.0
 11
30.546387
 21
2.248683
 31
0.0
  0
LINE
  5
24D
330
22
100
AcDbEntity
  8
126
  6
Continuous
 62
     3
100
AcDbLine
 10
30.599478
 20
2.195593399999999
 30
0.0
 11
30.626978
 21
2.168093399999999
 31
0.0
  0
LINE
  5
24E
330
22
100
AcDbEntity
  8
126
  6
Continuous
 62
     3
100
AcDbLine
 10
30.680067
 20
2.1150036
 30
0.0
 11
30.707441
 21
2.087628599999999
 31
0.0
  0
LINE
  5
24F
330
22
100
AcDbEntity
  8
126
  6
Continuous
 62
     3
100
AcDbLine
 10
30.507963
 20
2.276058
 30
0.0
 11
30.535339
 21
2.248683
 31
0.0
  0
LINE
  5
250
330
22
100
AcDbEntity
  8
126
  6
Continuous
 62
     3
100
AcDbLine
 10
30.58842800000001
 20
2.195593399999999
 30
0.0
 11
30.615929
 21
2.168093399999999
 31
0.0
  0
LINE
  5
251
330
22
100
AcDbEntity
  8
126
  6
Continuous
 62
     3
100
AcDbLine
 10
30.669018
 20
2.1150036
 30
0.0
 11
30.696394
 21
2.087628599999999
 31
0.0
  0
LINE
  5
252
330
22
100
AcDbEntity
  8
126
  6
Continuous
 62
     3
100
AcDbLine
 10
30.496916
 20
2.276058
 30
0.0
 11
30.52429
 21
2.248683
 31
0.0
  0
LINE
  5
253
330
22
100
AcDbEntity
  8
126
  6
Continuous
 62
     3
100
AcDbLine
 10
30.577379
 20
2.195593399999999
 30
0.0
 11
30.604879
 21
2.168093399999999
 31
0.0
  0
LINE
  5
254
330
22
100
AcDbEntity
  8
126
  6
Continuous
 62
     3
100
AcDbLine
 10
30.65797
 20
2.1150036
 30
0.0
 11
30.685345
 21
2.087628599999999
 31
0.0
  0
LINE
  5
255
330
22
100
AcDbEntity
  8
126
  6
Continuous
 62
     3
100
AcDbLine
 10
30.485867
 20
2.276058
 30
0.0
 11
30.515743
 21
2.2461817
 31
0.0
  0
LINE
  5
256
330
22
100
AcDbEntity
  8
126
  6
Continuous
 62
     3
100
AcDbLine
 10
30.566332
 20
2.195593399999999
 30
0.0
 11
30.593832
 21
2.168093399999999
 31
0.0
  0
LINE
  5
257
330
22
100
AcDbEntity
  8
126
  6
Continuous
 62
     3
100
AcDbLine
 10
30.646921
 20
2.1150036
 30
0.0
 11
30.674295
 21
2.087628599999999
 31
0.0
  0
LINE
  5
258
330
22
100
AcDbEntity
  8
126
  6
Continuous
 62
     3
100
AcDbLine
 10
30.474819
 20
2.276058
 30
0.0
 11
30.514088
 21
2.2367892
 31
0.0
  0
LINE
  5
259
330
22
100
AcDbEntity
  8
126
  6
Continuous
 62
     3
100
AcDbLine
 10
30.55528300000001
 20
2.195593399999999
 30
0.0
 11
30.582783
 21
2.168093399999999
 31
0.0
  0
LINE
  5
25A
330
22
100
AcDbEntity
  8
126
  6
Continuous
 62
     3
100
AcDbLine
 10
30.635872
 20
2.1150036
 30
0.0
 11
30.663248
 21
2.087628599999999
 31
0.0
  0
LINE
  5
25B
330
22
100
AcDbEntity
  8
126
  6
Continuous
 62
     3
100
AcDbLine
 10
30.468105
 20
2.2717221
 30
0.0
 11
30.51243
 21
2.227396699999999
 31
0.0
  0
LINE
  5
25C
330
22
100
AcDbEntity
  8
126
  6
Continuous
 62
     3
100
AcDbLine
 10
30.544235
 20
2.195593399999999
 30
0.0
 11
30.571734
 21
2.168093399999999
 31
0.0
  0
LINE
  5
25D
330
22
100
AcDbEntity
  8
126
  6
Continuous
 62
     3
100
AcDbLine
 10
30.624824
 20
2.1150036
 30
0.0
 11
30.652199
 21
2.087628599999999
 31
0.0
  0
LINE
  5
25E
330
22
100
AcDbEntity
  8
126
  6
Continuous
 62
     3
100
AcDbLine
 10
30.46645
 20
2.2623296
 30
0.0
 11
30.510775
 21
2.218004499999999
 31
0.0
  0
LINE
  5
25F
330
22
100
AcDbEntity
  8
126
  6
Continuous
 62
     3
100
AcDbLine
 10
30.533186
 20
2.195593399999999
 30
0.0
 11
30.560686
 21
2.168093399999999
 31
0.0
  0
LINE
  5
260
330
22
100
AcDbEntity
  8
126
  6
Continuous
 62
     3
100
AcDbLine
 10
30.613775
 20
2.1150036
 30
0.0
 11
30.64115
 21
2.087628599999999
 31
0.0
  0
LINE
  5
261
330
22
100
AcDbEntity
  8
126
  6
Continuous
 62
     3
100
AcDbLine
 10
30.464794
 20
2.2529373
 30
0.0
 11
30.509119
 21
2.208612
 31
0.0
  0
LINE
  5
262
330
22
100
AcDbEntity
  8
126
  6
Continuous
 62
     3
100
AcDbLine
 10
30.522137
 20
2.195593399999999
 30
0.0
 11
30.549637
 21
2.168093399999999
 31
0.0
  0
LINE
  5
263
330
22
100
AcDbEntity
  8
126
  6
Continuous
 62
     3
100
AcDbLine
 10
30.602726
 20
2.1150036
 30
0.0
 11
30.630102
 21
2.087628599999999
 31
0.0
  0
LINE
  5
264
330
22
100
AcDbEntity
  8
126
  6
Continuous
 62
     3
100
AcDbLine
 10
30.463137
 20
2.243544799999999
 30
0.0
 11
30.507462
 21
2.199219699999999
 31
0.0
  0
LINE
  5
265
330
22
100
AcDbEntity
  8
126
  6
Continuous
 62
     3
100
AcDbLine
 10
30.511089
 20
2.195593399999999
 30
0.0
 11
30.53859
 21
2.168093399999999
 31
0.0
  0
LINE
  5
266
330
22
100
AcDbEntity
  8
126
  6
Continuous
 62
     3
100
AcDbLine
 10
30.591679
 20
2.1150036
 30
0.0
 11
30.61905300000001
 21
2.087628599999999
 31
0.0
  0
LINE
  5
267
330
22
100
AcDbEntity
  8
126
  6
Continuous
 62
     3
100
AcDbLine
 10
30.461481
 20
2.2341526
 30
0.0
 11
30.52754
 21
2.168093399999999
 31
0.0
  0
LINE
  5
268
330
22
100
AcDbEntity
  8
126
  6
Continuous
 62
     3
100
AcDbLine
 10
30.580629
 20
2.1150036
 30
0.0
 11
30.608006
 21
2.087628599999999
 31
0.0
  0
LINE
  5
269
330
22
100
AcDbEntity
  8
126
  6
Continuous
 62
     3
100
AcDbLine
 10
30.459826
 20
2.2247601
 30
0.0
 11
30.516491
 21
2.168093399999999
 31
0.0
  0
LINE
  5
26A
330
22
100
AcDbEntity
  8
126
  6
Continuous
 62
     3
100
AcDbLine
 10
30.569582
 20
2.1150036
 30
0.0
 11
30.596956
 21
2.087628599999999
 31
0.0
  0
LINE
  5
26B
330
22
100
AcDbEntity
  8
126
  6
Continuous
 62
     3
100
AcDbLine
 10
30.458168
 20
2.215367599999999
 30
0.0
 11
30.505537
 21
2.1679986
 31
0.0
  0
LINE
  5
26C
330
22
100
AcDbEntity
  8
126
  6
Continuous
 62
     3
100
AcDbLine
 10
30.558533
 20
2.1150036
 30
0.0
 11
30.585907
 21
2.087628599999999
 31
0.0
  0
LINE
  5
26D
330
22
100
AcDbEntity
  8
126
  6
Continuous
 62
     3
100
AcDbLine
 10
30.237343
 20
2.4251442
 30
0.0
 11
30.28587
 21
2.3766177
 31
0.0
  0
LINE
  5
26E
330
22
100
AcDbEntity
  8
126
  6
Continuous
 62
     3
100
AcDbLine
 10
30.456512
 20
2.205975299999999
 30
0.0
 11
30.503881
 21
2.1586061
 31
0.0
  0
LINE
  5
26F
330
22
100
AcDbEntity
  8
126
  6
Continuous
 62
     3
100
AcDbLine
 10
30.547483
 20
2.1150036
 30
0.0
 11
30.57486
 21
2.087628599999999
 31
0.0
  0
LINE
  5
270
330
22
100
AcDbEntity
  8
126
  6
Continuous
 62
     3
100
AcDbLine
 10
30.213436
 20
2.438003799999999
 30
0.0
 11
30.303305
 21
2.3481345
 31
0.0
  0
LINE
  5
271
330
22
100
AcDbEntity
  8
126
  6
Continuous
 62
     3
100
AcDbLine
 10
30.454857
 20
2.196582799999998
 30
0.0
 11
30.502226
 21
2.1492138
 31
0.0
  0
LINE
  5
272
330
22
100
AcDbEntity
  8
126
  6
Continuous
 62
     3
100
AcDbLine
 10
30.536436
 20
2.1150036
 30
0.0
 11
30.56381
 21
2.087628599999999
 31
0.0
  0
LINE
  5
273
330
22
100
AcDbEntity
  8
126
  6
Continuous
 62
     3
100
AcDbLine
 10
30.196775
 20
2.4436162
 30
0.0
 11
30.313236
 21
2.3271554
 31
0.0
  0
LINE
  5
274
330
22
100
AcDbEntity
  8
126
  6
Continuous
 62
     3
100
AcDbLine
 10
30.453201
 20
2.187190299999999
 30
0.0
 11
30.50057
 21
2.139821299999999
 31
0.0
  0
LINE
  5
275
330
22
100
AcDbEntity
  8
126
  6
Continuous
 62
     3
100
AcDbLine
 10
30.525387
 20
2.1150036
 30
0.0
 11
30.552763
 21
2.087628599999999
 31
0.0
  0
LINE
  5
276
330
22
100
AcDbEntity
  8
126
  6
Continuous
 62
     3
100
AcDbLine
 10
30.183018
 20
2.4463251
 30
0.0
 11
30.320419
 21
2.308922299999998
 31
0.0
  0
LINE
  5
277
330
22
100
AcDbEntity
  8
126
  6
Continuous
 62
     3
100
AcDbLine
 10
30.451544
 20
2.177798
 30
0.0
 11
30.498913
 21
2.130428999999999
 31
0.0
  0
LINE
  5
278
330
22
100
AcDbEntity
  8
126
  6
Continuous
 62
     3
100
AcDbLine
 10
30.514339
 20
2.1150036
 30
0.0
 11
30.541714
 21
2.087628599999999
 31
0.0
  0
LINE
  5
279
330
22
100
AcDbEntity
  8
126
  6
Continuous
 62
     3
100
AcDbLine
 10
30.170938
 20
2.447354999999999
 30
0.0
 11
30.219694
 21
2.398600299999999
 31
0.0
  0
LINE
  5
27A
330
22
100
AcDbEntity
  8
126
  6
Continuous
 62
     3
100
AcDbLine
 10
30.261297
 20
2.356997499999998
 30
0.0
 11
30.325884
 21
2.292408899999998
 31
0.0
  0
LINE
  5
27B
330
22
100
AcDbEntity
  8
126
  6
Continuous
 62
     3
100
AcDbLine
 10
30.449888
 20
2.168405499999999
 30
0.0
 11
30.497257
 21
2.1210365
 31
0.0
  0
LINE
  5
27C
330
22
100
AcDbEntity
  8
126
  6
Continuous
 62
     3
100
AcDbLine
 10
30.50329
 20
2.1150036
 30
0.0
 11
30.530664
 21
2.087628599999999
 31
0.0
  0
LINE
  5
27D
330
22
100
AcDbEntity
  8
126
  6
Continuous
 62
     3
100
AcDbLine
 10
30.16007800000001
 20
2.447166899999999
 30
0.0
 11
30.199965
 21
2.4072814
 31
0.0
  0
LINE
  5
27E
330
22
100
AcDbEntity
  8
126
  6
Continuous
 62
     3
100
AcDbLine
 10
30.27581
 20
2.331434199999999
 30
0.0
 11
30.33007100000001
 21
2.277174899999999
 31
0.0
  0
LINE
  5
27F
330
22
100
AcDbEntity
  8
126
  6
Continuous
 62
     3
100
AcDbLine
 10
30.448233
 20
2.159013299999998
 30
0.0
 11
30.519617
 21
2.087628599999999
 31
0.0
  0
LINE
  5
280
330
22
100
AcDbEntity
  8
126
  6
Continuous
 62
     3
100
AcDbLine
 10
30.150139
 20
2.446057099999999
 30
0.0
 11
30.18623
 21
2.409965999999998
 31
0.0
  0
LINE
  5
281
330
22
100
AcDbEntity
  8
126
  6
Continuous
 62
     3
100
AcDbLine
 10
30.284327
 20
2.3118696
 30
0.0
 11
30.333397
 21
2.2628002
 31
0.0
  0
LINE
  5
282
330
22
100
AcDbEntity
  8
126
  6
Continuous
 62
     3
100
AcDbLine
 10
30.446575
 20
2.149620799999999
 30
0.0
 11
30.508568
 21
2.087628599999999
 31
0.0
  0
LINE
  5
283
330
22
100
AcDbEntity
  8
126
  6
Continuous
 62
     3
100
AcDbLine
 10
30.140922
 20
2.4442251
 30
0.0
 11
30.174854
 21
2.410293299999999
 31
0.0
  0
LINE
  5
284
330
22
100
AcDbEntity
  8
126
  6
Continuous
 62
     3
100
AcDbLine
 10
30.290436
 20
2.2947123
 30
0.0
 11
30.335964
 21
2.249184099999999
 31
0.0
  0
LINE
  5
285
330
22
100
AcDbEntity
  8
126
  6
Continuous
 62
     3
100
AcDbLine
 10
30.44492
 20
2.140228299999999
 30
0.0
 11
30.49752
 21
2.087628599999999
 31
0.0
  0
LINE
  5
286
330
22
100
AcDbEntity
  8
126
  6
Continuous
 62
     3
100
AcDbLine
 10
30.132288
 20
2.4418106
 30
0.0
 11
30.165014
 21
2.409085499999999
 31
0.0
  0
LINE
  5
287
330
22
100
AcDbEntity
  8
126
  6
Continuous
 62
     3
100
AcDbLine
 10
30.29496
 20
2.279139999999999
 30
0.0
 11
30.33794
 21
2.236158599999999
 31
0.0
  0
LINE
  5
288
330
22
100
AcDbEntity
  8
126
  6
Continuous
 62
     3
100
AcDbLine
 10
30.443264
 20
2.130835999999999
 30
0.0
 11
30.486471
 21
2.087628599999999
 31
0.0
  0
LINE
  5
289
330
22
100
AcDbEntity
  8
126
  6
Continuous
 62
     3
100
AcDbLine
 10
30.124136
 20
2.438915499999998
 30
0.0
 11
30.15624600000001
 21
2.4068041
 31
0.0
  0
LINE
  5
28A
330
22
100
AcDbEntity
  8
126
  6
Continuous
 62
     3
100
AcDbLine
 10
30.298456
 20
2.2645941
 30
0.0
 11
30.330833
 21
2.232218299999999
 31
0.0
  0
LINE
  5
28B
330
22
100
AcDbEntity
  8
126
  6
Continuous
 62
     3
100
AcDbLine
 10
30.36726
 20
2.195790499999999
 30
0.0
 11
30.374811
 21
2.188239799999998
 31
0.0
  0
LINE
  5
28C
330
22
100
AcDbEntity
  8
126
  6
Continuous
 62
     3
100
AcDbLine
 10
30.441608
 20
2.1214435
 30
0.0
 11
30.475422
 21
2.087628599999999
 31
0.0
  0
LINE
  5
28D
330
22
100
AcDbEntity
  8
126
  6
Continuous
 62
     3
100
AcDbLine
 10
30.116386
 20
2.435615499999999
 30
0.0
 11
30.148273
 21
2.4037294
 31
0.0
  0
LINE
  5
28E
330
22
100
AcDbEntity
  8
126
  6
Continuous
 62
     3
100
AcDbLine
 10
30.301128
 20
2.250874299999999
 30
0.0
 11
30.319784
 21
2.232218299999999
 31
0.0
  0
LINE
  5
28F
330
22
100
AcDbEntity
  8
126
  6
Continuous
 62
     3
100
AcDbLine
 10
30.3556
 20
2.1964016
 30
0.0
 11
30.373156
 21
2.1788476
 31
0.0
  0
LINE
  5
290
330
22
100
AcDbEntity
  8
126
  6
Continuous
 62
     3
100
AcDbLine
 10
30.439951
 20
2.1120512
 30
0.0
 11
30.464375
 21
2.087628599999999
 31
0.0
  0
LINE
  5
291
330
22
100
AcDbEntity
  8
126
  6
Continuous
 62
     3
100
AcDbLine
 10
30.109041
 20
2.431912899999999
 30
0.0
 11
30.140911
 21
2.400043
 31
0.0
  0
LINE
  5
292
330
22
100
AcDbEntity
  8
126
  6
Continuous
 62
     3
100
AcDbLine
 10
30.303186
 20
2.237768399999999
 30
0.0
 11
30.308735
 21
2.232218299999999
 31
0.0
  0
LINE
  5
293
330
22
100
AcDbEntity
  8
126
  6
Continuous
 62
     3
100
AcDbLine
 10
30.343941
 20
2.1970127
 30
0.0
 11
30.371498
 21
2.169455099999999
 31
0.0
  0
LINE
  5
294
330
22
100
AcDbEntity
  8
126
  6
Continuous
 62
     3
100
AcDbLine
 10
30.438295
 20
2.1026587
 30
0.0
 11
30.453325
 21
2.087628599999999
 31
0.0
  0
LINE
  5
295
330
22
100
AcDbEntity
  8
126
  6
Continuous
 62
     3
100
AcDbLine
 10
30.10211
 20
2.4277947
 30
0.0
 11
30.134037
 21
2.395868099999999
 31
0.0
  0
LINE
  5
296
330
22
100
AcDbEntity
  8
126
  6
Continuous
 62
     3
100
AcDbLine
 10
30.332281
 20
2.1976237
 30
0.0
 11
30.36227
 21
2.1676347
 31
0.0
  0
LINE
  5
297
330
22
100
AcDbEntity
  8
126
  6
Continuous
 62
     3
100
AcDbLine
 10
30.43664
 20
2.093266199999999
 30
0.0
 11
30.442276
 21
2.087628599999999
 31
0.0
  0
LINE
  5
298
330
22
100
AcDbEntity
  8
126
  6
Continuous
 62
     3
100
AcDbLine
 10
30.095444
 20
2.423412799999999
 30
0.0
 11
30.127565
 21
2.391291899999999
 31
0.0
  0
LINE
  5
299
330
22
100
AcDbEntity
  8
126
  6
Continuous
 62
     3
100
AcDbLine
 10
30.320622
 20
2.198234799999998
 30
0.0
 11
30.351772
 21
2.1670845
 31
0.0
  0
LINE
  5
29A
330
22
100
AcDbEntity
  8
126
  6
Continuous
 62
     3
100
AcDbLine
 10
30.089012
 20
2.418797
 30
0.0
 11
30.12157800000001
 21
2.386229299999999
 31
0.0
  0
LINE
  5
29B
330
22
100
AcDbEntity
  8
126
  6
Continuous
 62
     3
100
AcDbLine
 10
30.308962
 20
2.198845899999998
 30
0.0
 11
30.341274
 21
2.1665342
 31
0.0
  0
LINE
  5
29C
330
22
100
AcDbEntity
  8
126
  6
Continuous
 62
     3
100
AcDbLine
 10
30.082972
 20
2.413787799999999
 30
0.0
 11
30.115936
 21
2.3808234
 31
0.0
  0
LINE
  5
29D
330
22
100
AcDbEntity
  8
126
  6
Continuous
 62
     3
100
AcDbLine
 10
30.297302
 20
2.199456899999999
 30
0.0
 11
30.330776
 21
2.1659842
 31
0.0
  0
LINE
  5
29E
330
22
100
AcDbEntity
  8
126
  6
Continuous
 62
     3
100
AcDbLine
 10
30.077126
 20
2.408584799999998
 30
0.0
 11
30.110539
 21
2.3751721
 31
0.0
  0
LINE
  5
29F
330
22
100
AcDbEntity
  8
126
  6
Continuous
 62
     3
100
AcDbLine
 10
30.285643
 20
2.200067799999998
 30
0.0
 11
30.320278
 21
2.1654339
 31
0.0
  0
LINE
  5
2A0
330
22
100
AcDbEntity
  8
126
  6
Continuous
 62
     3
100
AcDbLine
 10
30.07146500000001
 20
2.4031982
 30
0.0
 11
30.105497
 21
2.3691647
 31
0.0
  0
LINE
  5
2A1
330
22
100
AcDbEntity
  8
126
  6
Continuous
 62
     3
100
AcDbLine
 10
30.273983
 20
2.200678799999999
 30
0.0
 11
30.309778
 21
2.1648836
 31
0.0
  0
LINE
  5
2A2
330
22
100
AcDbEntity
  8
126
  6
Continuous
 62
     3
100
AcDbLine
 10
30.066145
 20
2.3974693
 30
0.0
 11
30.100735
 21
2.3628786
 31
0.0
  0
LINE
  5
2A3
330
22
100
AcDbEntity
  8
126
  6
Continuous
 62
     3
100
AcDbLine
 10
30.262323
 20
2.201289899999999
 30
0.0
 11
30.29928
 21
2.164333599999999
 31
0.0
  0
LINE
  5
2A4
330
22
100
AcDbEntity
  8
126
  6
Continuous
 62
     3
100
AcDbLine
 10
30.332146
 20
2.131468299999998
 30
0.0
 11
30.337704
 21
2.125910799999999
 31
0.0
  0
LINE
  5
2A5
330
22
100
AcDbEntity
  8
126
  6
Continuous
 62
     3
100
AcDbLine
 10
30.060965
 20
2.3916013
 30
0.0
 11
30.09614
 21
2.356426499999999
 31
0.0
  0
LINE
  5
2A6
330
22
100
AcDbEntity
  8
126
  6
Continuous
 62
     3
100
AcDbLine
 10
30.250664
 20
2.201900999999998
 30
0.0
 11
30.288782
 21
2.163783299999999
 31
0.0
  0
LINE
  5
2A7
330
22
100
AcDbEntity
  8
126
  6
Continuous
 62
     3
100
AcDbLine
 10
30.321096
 20
2.131468299999998
 30
0.0
 11
30.336288
 21
2.1162777
 31
0.0
  0
LINE
  5
2A8
330
22
100
AcDbEntity
  8
126
  6
Continuous
 62
     3
100
AcDbLine
 10
30.056
 20
2.385516899999998
 30
0.0
 11
30.091911
 21
2.349606
 31
0.0
  0
LINE
  5
2A9
330
22
100
AcDbEntity
  8
126
  6
Continuous
 62
     3
100
AcDbLine
 10
30.239004
 20
2.202512
 30
0.0
 11
30.27828400000001
 21
2.163232999999999
 31
0.0
  0
LINE
  5
2AA
330
22
100
AcDbEntity
  8
126
  6
Continuous
 62
     3
100
AcDbLine
 10
30.310049
 20
2.131468299999998
 30
0.0
 11
30.334545
 21
2.1069729
 31
0.0
  0
LINE
  5
2AB
330
22
100
AcDbEntity
  8
126
  6
Continuous
 62
     3
100
AcDbLine
 10
30.051277
 20
2.379191399999998
 30
0.0
 11
30.087841
 21
2.3426275
 31
0.0
  0
LINE
  5
2AC
330
22
100
AcDbEntity
  8
126
  6
Continuous
 62
     3
100
AcDbLine
 10
30.227345
 20
2.2031231
 30
0.0
 11
30.267786
 21
2.162683
 31
0.0
  0
LINE
  5
2AD
330
22
100
AcDbEntity
  8
126
  6
Continuous
 62
     3
100
AcDbLine
 10
30.303362
 20
2.127106399999999
 30
0.0
 11
30.332682
 21
2.097786399999999
 31
0.0
  0
LINE
  5
2AE
330
22
100
AcDbEntity
  8
126
  6
Continuous
 62
     3
100
AcDbLine
 10
30.046665
 20
2.3727546
 30
0.0
 11
30.083988
 21
2.335432099999998
 31
0.0
  0
LINE
  5
2AF
330
22
100
AcDbEntity
  8
126
  6
Continuous
 62
     3
100
AcDbLine
 10
30.215685
 20
2.203734199999999
 30
0.0
 11
30.257288
 21
2.162132699999999
 31
0.0
  0
LINE
  5
2B0
330
22
100
AcDbEntity
  8
126
  6
Continuous
 62
     3
100
AcDbLine
 10
30.301933
 20
2.117485999999999
 30
0.0
 11
30.330605
 21
2.0888159
 31
0.0
  0
LINE
  5
2B1
330
22
100
AcDbEntity
  8
126
  6
Continuous
 62
     3
100
AcDbLine
 10
30.042347
 20
2.366024499999999
 30
0.0
 11
30.080402
 21
2.327968799999998
 31
0.0
  0
LINE
  5
2B2
330
22
100
AcDbEntity
  8
126
  6
Continuous
 62
     3
100
AcDbLine
 10
30.204027
 20
2.2043452
 30
0.0
 11
30.246788
 21
2.1615825
 31
0.0
  0
LINE
  5
2B3
330
22
100
AcDbEntity
  8
126
  6
Continuous
 62
     3
100
AcDbLine
 10
30.30022600000001
 20
2.1081452
 30
0.0
 11
30.328314
 21
2.080057599999999
 31
0.0
  0
LINE
  5
2B4
330
22
100
AcDbEntity
  8
126
  6
Continuous
 62
     3
100
AcDbLine
 10
30.038151
 20
2.3591714
 30
0.0
 11
30.076923
 21
2.320400199999999
 31
0.0
  0
LINE
  5
2B5
330
22
100
AcDbEntity
  8
126
  6
Continuous
 62
     3
100
AcDbLine
 10
30.192366
 20
2.204956299999999
 30
0.0
 11
30.23629000000001
 21
2.161032399999998
 31
0.0
  0
LINE
  5
2B6
330
22
100
AcDbEntity
  8
126
  6
Continuous
 62
     3
100
AcDbLine
 10
30.298412
 20
2.098909899999998
 30
0.0
 11
30.32592
 21
2.071402799999999
 31
0.0
  0
LINE
  5
2B7
330
22
100
AcDbEntity
  8
126
  6
Continuous
 62
     3
100
AcDbLine
 10
30.034143
 20
2.3521307
 30
0.0
 11
30.073782
 21
2.3124917
 31
0.0
  0
LINE
  5
2B8
330
22
100
AcDbEntity
  8
126
  6
Continuous
 62
     3
100
AcDbLine
 10
30.180708
 20
2.2055674
 30
0.0
 11
30.225792
 21
2.1604822
 31
0.0
  0
LINE
  5
2B9
330
22
100
AcDbEntity
  8
126
  6
Continuous
 62
     3
100
AcDbLine
 10
30.296272
 20
2.090002999999998
 30
0.0
 11
30.323221
 21
2.063052899999999
 31
0.0
  0
LINE
  5
2BA
330
22
100
AcDbEntity
  8
126
  6
Continuous
 62
     3
100
AcDbLine
 10
30.03035
 20
2.344876799999999
 30
0.0
 11
30.070749
 21
2.304475999999999
 31
0.0
  0
LINE
  5
2BB
330
22
100
AcDbEntity
  8
126
  6
Continuous
 62
     3
100
AcDbLine
 10
30.169048
 20
2.206178399999999
 30
0.0
 11
30.215294
 21
2.1599319
 31
0.0
  0
LINE
  5
2BC
330
22
100
AcDbEntity
  8
126
  6
Continuous
 62
     3
100
AcDbLine
 10
30.294012
 20
2.081214399999999
 30
0.0
 11
30.320431
 21
2.054794499999998
 31
0.0
  0
LINE
  5
2BD
330
22
100
AcDbEntity
  8
126
  6
Continuous
 62
     3
100
AcDbLine
 10
30.02664600000001
 20
2.3375306
 30
0.0
 11
30.067957
 21
2.296220799999999
 31
0.0
  0
LINE
  5
2BE
330
22
100
AcDbEntity
  8
126
  6
Continuous
 62
     3
100
AcDbLine
 10
30.157389
 20
2.2067895
 30
0.0
 11
30.204796
 21
2.1593819
 31
0.0
  0
LINE
  5
2BF
330
22
100
AcDbEntity
  8
126
  6
Continuous
 62
     3
100
AcDbLine
 10
30.291523
 20
2.072653999999999
 30
0.0
 11
30.317425
 21
2.046753199999999
 31
0.0
  0
LINE
  5
2C0
330
22
100
AcDbEntity
  8
126
  6
Continuous
 62
     3
100
AcDbLine
 10
30.023243
 20
2.329884999999999
 30
0.0
 11
30.065361
 21
2.287767399999999
 31
0.0
  0
LINE
  5
2C1
330
22
100
AcDbEntity
  8
126
  6
Continuous
 62
     3
100
AcDbLine
 10
30.145729
 20
2.2074006
 30
0.0
 11
30.194298
 21
2.1588316
 31
0.0
  0
LINE
  5
2C2
330
22
100
AcDbEntity
  8
126
  6
Continuous
 62
     3
100
AcDbLine
 10
30.288826
 20
2.0643034
 30
0.0
 11
30.314243
 21
2.0388861
 31
0.0
  0
LINE
  5
2C3
330
22
100
AcDbEntity
  8
126
  6
Continuous
 62
     3
100
AcDbLine
 10
30.019928
 20
2.3221526
 30
0.0
 11
30.062912
 21
2.279167399999999
 31
0.0
  0
LINE
  5
2C4
330
22
100
AcDbEntity
  8
126
  6
Continuous
 62
     3
100
AcDbLine
 10
30.134069
 20
2.2080116
 30
0.0
 11
30.1838
 21
2.158281299999999
 31
0.0
  0
LINE
  5
2C5
330
22
100
AcDbEntity
  8
126
  6
Continuous
 62
     3
100
AcDbLine
 10
30.285992
 20
2.056087999999999
 30
0.0
 11
30.310932
 21
2.031147
 31
0.0
  0
LINE
  5
2C6
330
22
100
AcDbEntity
  8
126
  6
Continuous
 62
     3
100
AcDbLine
 10
30.01683
 20
2.314201799999999
 30
0.0
 11
30.061138
 21
2.269892899999998
 31
0.0
  0
LINE
  5
2C7
330
22
100
AcDbEntity
  8
126
  6
Continuous
 62
     3
100
AcDbLine
 10
30.12241
 20
2.2086227
 30
0.0
 11
30.1733
 21
2.1577311
 31
0.0
  0
LINE
  5
2C8
330
22
100
AcDbEntity
  8
126
  6
Continuous
 62
     3
100
AcDbLine
 10
30.282856
 20
2.0481761
 30
0.0
 11
30.307362
 21
2.0236692
 31
0.0
  0
LINE
  5
2C9
330
22
100
AcDbEntity
  8
126
  6
Continuous
 62
     3
100
AcDbLine
 10
30.013905
 20
2.3060791
 30
0.0
 11
30.061087
 21
2.258896099999998
 31
0.0
  0
LINE
  5
2CA
330
22
100
AcDbEntity
  8
126
  6
Continuous
 62
     3
100
AcDbLine
 10
30.110598
 20
2.209384899999998
 30
0.0
 11
30.16280200000001
 21
2.157181
 31
0.0
  0
LINE
  5
2CB
330
22
100
AcDbEntity
  8
126
  6
Continuous
 62
     3
100
AcDbLine
 10
30.279623
 20
2.0403609
 30
0.0
 11
30.303703
 21
2.016278999999999
 31
0.0
  0
LINE
  5
2CC
330
22
100
AcDbEntity
  8
126
  6
Continuous
 62
     3
100
AcDbLine
 10
30.01111
 20
2.2978249
 30
0.0
 11
30.064375
 21
2.2445602
 31
0.0
  0
LINE
  5
2CD
330
22
100
AcDbEntity
  8
126
  6
Continuous
 62
     3
100
AcDbLine
 10
30.096176
 20
2.2127588
 30
0.0
 11
30.152304
 21
2.156630799999998
 31
0.0
  0
LINE
  5
2CE
330
22
100
AcDbEntity
  8
126
  6
Continuous
 62
     3
100
AcDbLine
 10
30.27608900000001
 20
2.032845
 30
0.0
 11
30.299788
 21
2.0091467
 31
0.0
  0
LINE
  5
2CF
330
22
100
AcDbEntity
  8
126
  6
Continuous
 62
     3
100
AcDbLine
 10
30.008581
 20
2.289305699999998
 30
0.0
 11
30.141806
 21
2.156080499999998
 31
0.0
  0
LINE
  5
2D0
330
22
100
AcDbEntity
  8
126
  6
Continuous
 62
     3
100
AcDbLine
 10
30.272394
 20
2.025491199999998
 30
0.0
 11
30.295733
 21
2.0021536
 31
0.0
  0
LINE
  5
2D1
330
22
100
AcDbEntity
  8
126
  6
Continuous
 62
     3
100
AcDbLine
 10
30.006147
 20
2.2806902
 30
0.0
 11
30.131308
 21
2.1555305
 31
0.0
  0
LINE
  5
2D2
330
22
100
AcDbEntity
  8
126
  6
Continuous
 62
     3
100
AcDbLine
 10
30.268499
 20
2.018337999999999
 30
0.0
 11
30.291508
 21
1.995329899999999
 31
0.0
  0
LINE
  5
2D3
330
22
100
AcDbEntity
  8
126
  6
Continuous
 62
     3
100
AcDbLine
 10
30.003975
 20
2.271814799999999
 30
0.0
 11
30.12081
 21
2.1549802
 31
0.0
  0
LINE
  5
2D4
330
22
100
AcDbEntity
  8
126
  6
Continuous
 62
     3
100
AcDbLine
 10
30.26431500000001
 20
2.0114751
 30
0.0
 11
30.287041
 21
1.9887476
 31
0.0
  0
LINE
  5
2D5
330
22
100
AcDbEntity
  8
126
  6
Continuous
 62
     3
100
AcDbLine
 10
30.001963
 20
2.262778299999999
 30
0.0
 11
30.110455
 21
2.1542852
 31
0.0
  0
LINE
  5
2D6
330
22
100
AcDbEntity
  8
126
  6
Continuous
 62
     3
100
AcDbLine
 10
30.259989
 20
2.004750699999998
 30
0.0
 11
30.282469
 21
1.9822717
 31
0.0
  0
LINE
  5
2D7
330
22
100
AcDbEntity
  8
126
  6
Continuous
 62
     3
100
AcDbLine
 10
30.000111
 20
2.253581
 30
0.0
 11
30.101122
 21
2.152570199999999
 31
0.0
  0
LINE
  5
2D8
330
22
100
AcDbEntity
  8
126
  6
Continuous
 62
     3
100
AcDbLine
 10
30.255322
 20
1.998370999999998
 30
0.0
 11
30.27760300000001
 21
1.9760878
 31
0.0
  0
LINE
  5
2D9
330
22
100
AcDbEntity
  8
126
  6
Continuous
 62
     3
100
AcDbLine
 10
29.998545
 20
2.244098699999999
 30
0.0
 11
30.09295900000001
 21
2.149684399999999
 31
0.0
  0
LINE
  5
2DA
330
22
100
AcDbEntity
  8
126
  6
Continuous
 62
     3
100
AcDbLine
 10
30.250425
 20
1.992218
 30
0.0
 11
30.272583
 21
1.970059399999999
 31
0.0
  0
LINE
  5
2DB
330
22
100
AcDbEntity
  8
126
  6
Continuous
 62
     3
100
AcDbLine
 10
29.99711
 20
2.2344842
 30
0.0
 11
30.08584600000001
 21
2.145748899999999
 31
0.0
  0
LINE
  5
2DC
330
22
100
AcDbEntity
  8
126
  6
Continuous
 62
     3
100
AcDbLine
 10
30.245335
 20
1.9862607
 30
0.0
 11
30.267382
 21
1.964212099999999
 31
0.0
  0
LINE
  5
2DD
330
22
100
AcDbEntity
  8
126
  6
Continuous
 62
     3
100
AcDbLine
 10
29.995941
 20
2.224605599999998
 30
0.0
 11
30.079578
 21
2.1409674
 31
0.0
  0
LINE
  5
2DE
330
22
100
AcDbEntity
  8
126
  6
Continuous
 62
     3
100
AcDbLine
 10
30.239788
 20
1.9807578
 30
0.0
 11
30.261881
 21
1.9586661
 31
0.0
  0
LINE
  5
2DF
330
22
100
AcDbEntity
  8
126
  6
Continuous
 62
     3
100
AcDbLine
 10
29.995014
 20
2.2144842
 30
0.0
 11
30.074095
 21
2.1354027
 31
0.0
  0
LINE
  5
2E0
330
22
100
AcDbEntity
  8
126
  6
Continuous
 62
     3
100
AcDbLine
 10
30.233982
 20
1.975515699999999
 30
0.0
 11
30.25622
 21
1.9532778
 31
0.0
  0
LINE
  5
2E1
330
22
100
AcDbEntity
  8
126
  6
Continuous
 62
     3
100
AcDbLine
 10
29.994259
 20
2.2041895
 30
0.0
 11
30.069399
 21
2.129049799999999
 31
0.0
  0
LINE
  5
2E2
330
22
100
AcDbEntity
  8
126
  6
Continuous
 62
     3
100
AcDbLine
 10
30.227873
 20
1.970575899999999
 30
0.0
 11
30.250296
 21
1.9481531
 31
0.0
  0
LINE
  5
2E3
330
22
100
AcDbEntity
  8
126
  6
Continuous
 62
     3
100
AcDbLine
 10
29.993843
 20
2.1935568
 30
0.0
 11
30.065538
 21
2.121861899999998
 31
0.0
  0
LINE
  5
2E4
330
22
100
AcDbEntity
  8
126
  6
Continuous
 62
     3
100
AcDbLine
 10
30.221273
 20
1.9661275
 30
0.0
 11
30.24407
 21
1.9433306
 31
0.0
  0
LINE
  5
2E5
330
22
100
AcDbEntity
  8
126
  6
Continuous
 62
     3
100
AcDbLine
 10
29.99369600000001
 20
2.182656799999999
 30
0.0
 11
30.062614
 21
2.113738499999999
 31
0.0
  0
LINE
  5
2E6
330
22
100
AcDbEntity
  8
126
  6
Continuous
 62
     3
100
AcDbLine
 10
30.21418
 20
1.962171399999999
 30
0.0
 11
30.237629
 21
1.938723899999999
 31
0.0
  0
LINE
  5
2E7
330
22
100
AcDbEntity
  8
126
  6
Continuous
 62
     3
100
AcDbLine
 10
29.99379
 20
2.1715138
 30
0.0
 11
30.061052
 21
2.1042504
 31
0.0
  0
LINE
  5
2E8
330
22
100
AcDbEntity
  8
126
  6
Continuous
 62
     3
100
AcDbLine
 10
30.206562
 20
1.9587415
 30
0.0
 11
30.230887
 21
1.934416999999999
 31
0.0
  0
LINE
  5
2E9
330
22
100
AcDbEntity
  8
126
  6
Continuous
 62
     3
100
AcDbLine
 10
29.99424
 20
2.1600156
 30
0.0
 11
30.061186
 21
2.093069999999999
 31
0.0
  0
LINE
  5
2EA
330
22
100
AcDbEntity
  8
126
  6
Continuous
 62
     3
100
AcDbLine
 10
30.198278
 20
1.955975699999999
 30
0.0
 11
30.223743
 21
1.9305105
 31
0.0
  0
LINE
  5
2EB
330
22
100
AcDbEntity
  8
126
  6
Continuous
 62
     3
100
AcDbLine
 10
29.9951
 20
2.148106799999998
 30
0.0
 11
30.064594
 21
2.078611899999998
 31
0.0
  0
LINE
  5
2EC
330
22
100
AcDbEntity
  8
126
  6
Continuous
 62
     3
100
AcDbLine
 10
30.189129
 20
1.9540772
 30
0.0
 11
30.216286
 21
1.9269205
 31
0.0
  0
LINE
  5
2ED
330
22
100
AcDbEntity
  8
126
  6
Continuous
 62
     3
100
AcDbLine
 10
29.996325
 20
2.1358325
 30
0.0
 11
30.069626
 21
2.062531899999999
 31
0.0
  0
LINE
  5
2EE
330
22
100
AcDbEntity
  8
126
  6
Continuous
 62
     3
100
AcDbLine
 10
30.178795
 20
1.953363699999998
 30
0.0
 11
30.208462
 21
1.923696899999999
 31
0.0
  0
LINE
  5
2EF
330
22
100
AcDbEntity
  8
126
  6
Continuous
 62
     3
100
AcDbLine
 10
29.99798
 20
2.1231287
 30
0.0
 11
30.07633
 21
2.0447793
 31
0.0
  0
LINE
  5
2F0
330
22
100
AcDbEntity
  8
126
  6
Continuous
 62
     3
100
AcDbLine
 10
30.166748
 20
1.9543616
 30
0.0
 11
30.200199
 21
1.920909399999999
 31
0.0
  0
LINE
  5
2F1
330
22
100
AcDbEntity
  8
126
  6
Continuous
 62
     3
100
AcDbLine
 10
30.00015100000001
 20
2.1099107
 30
0.0
 11
30.086502
 21
2.0235577
 31
0.0
  0
LINE
  5
2F2
330
22
100
AcDbEntity
  8
126
  6
Continuous
 62
     3
100
AcDbLine
 10
30.151352
 20
1.958709399999999
 30
0.0
 11
30.191317
 21
1.9187436
 31
0.0
  0
LINE
  5
2F3
330
22
100
AcDbEntity
  8
126
  6
Continuous
 62
     3
100
AcDbLine
 10
30.002947
 20
2.0960648
 30
0.0
 11
30.110756
 21
1.9882557
 31
0.0
  0
LINE
  5
2F4
330
22
100
AcDbEntity
  8
126
  6
Continuous
 62
     3
100
AcDbLine
 10
30.12142
 20
1.9775918
 30
0.0
 11
30.181829
 21
1.9171827
 31
0.0
  0
LINE
  5
2F5
330
22
100
AcDbEntity
  8
126
  6
Continuous
 62
     3
100
AcDbLine
 10
30.006533
 20
2.081430899999999
 30
0.0
 11
30.171593
 21
1.9163703
 31
0.0
  0
LINE
  5
2F6
330
22
100
AcDbEntity
  8
126
  6
Continuous
 62
     3
100
AcDbLine
 10
30.011139
 20
2.065776599999999
 30
0.0
 11
30.160406
 21
1.9165092
 31
0.0
  0
LINE
  5
2F7
330
22
100
AcDbEntity
  8
126
  6
Continuous
 62
     3
100
AcDbLine
 10
30.017117
 20
2.048750599999999
 30
0.0
 11
30.147909
 21
1.9179578
 31
0.0
  0
LINE
  5
2F8
330
22
100
AcDbEntity
  8
126
  6
Continuous
 62
     3
100
AcDbLine
 10
30.025026
 20
2.0297918
 30
0.0
 11
30.133234
 21
1.921583899999999
 31
0.0
  0
LINE
  5
2F9
330
22
100
AcDbEntity
  8
126
  6
Continuous
 62
     3
100
AcDbLine
 10
30.036694
 20
2.0070751
 30
0.0
 11
30.114998
 21
1.928771099999999
 31
0.0
  0
LINE
  5
2FA
330
22
100
AcDbEntity
  8
126
  6
Continuous
 62
     3
100
AcDbLine
 10
30.06242
 20
1.970301499999998
 30
0.0
 11
30.082092
 21
1.9506278
 31
0.0
  0
LINE
  5
2FB
330
22
100
AcDbEntity
  8
126
  6
Continuous
 62
     3
100
AcDbLine
 10
30.795296
 20
2.1150036
 30
0.0
 11
30.984926
 21
2.1150036
 31
0.0
  0
LINE
  5
2FC
330
22
100
AcDbEntity
  8
126
  6
Continuous
 62
     3
100
AcDbLine
 10
30.46887
 20
2.276058
 30
0.0
 11
30.731176
 21
2.276058
 31
0.0
  0
LINE
  5
2FD
330
22
100
AcDbEntity
  8
126
  6
Continuous
 62
     3
100
AcDbLine
 10
30.435644
 20
2.087628599999999
 30
0.0
 11
30.710646
 21
2.087628599999999
 31
0.0
  0
LINE
  5
2FE
330
22
100
AcDbEntity
  8
126
  6
Continuous
 62
     3
100
AcDbLine
 10
30.435644
 20
2.087628599999999
 30
0.0
 11
30.46887
 21
2.276058
 31
0.0
  0
LINE
  5
2FF
330
22
100
AcDbEntity
  8
126
  6
Continuous
 62
     3
100
AcDbLine
 10
30.51618400000001
 20
2.248683
 30
0.0
 11
30.726351
 21
2.248683
 31
0.0
  0
ARC
  5
300
330
22
100
AcDbEntity
  8
126
  6
Continuous
 62
     3
100
AcDbCircle
 10
30.115721
 20
2.264005399999998
 30
0.0
 40
0.054956902
100
AcDbArc
 50
165.45976
 51
266.99991
  0
LINE
  5
301
330
22
100
AcDbEntity
  8
126
  6
Continuous
 62
     3
100
AcDbLine
 10
30.7383
 20
2.087628599999999
 30
0.0
 11
30.771526
 21
2.276058
 31
0.0
  0
LINE
  5
302
330
22
100
AcDbEntity
  8
126
  6
Continuous
 62
     3
100
AcDbLine
 10
30.771526
 20
2.276058
 30
0.0
 11
30.823694
 21
2.276058
 31
0.0
  0
LINE
  5
303
330
22
100
AcDbEntity
  8
126
  6
Continuous
 62
     3
100
AcDbLine
 10
30.7383
 20
2.087628599999999
 30
0.0
 11
30.980099
 21
2.087628599999999
 31
0.0
  0
LINE
  5
304
330
22
100
AcDbEntity
  8
126
  6
Continuous
 62
     3
100
AcDbLine
 10
30.795296
 20
2.1150036
 30
0.0
 11
30.823694
 21
2.276058
 31
0.0
  0
LINE
  5
305
330
22
100
AcDbEntity
  8
126
  6
Continuous
 62
     3
100
AcDbLine
 10
30.506823
 20
2.195593399999999
 30
0.0
 11
30.51618400000001
 21
2.248683
 31
0.0
  0
LINE
  5
306
330
22
100
AcDbEntity
  8
126
  6
Continuous
 62
     3
100
AcDbLine
 10
30.726351
 20
2.248683
 30
0.0
 11
30.731176
 21
2.276058
 31
0.0
  0
LINE
  5
307
330
22
100
AcDbEntity
  8
126
  6
Continuous
 62
     3
100
AcDbLine
 10
30.699448
 20
2.168093399999999
 30
0.0
 11
30.70429600000001
 21
2.195593399999999
 31
0.0
  0
LINE
  5
308
330
22
100
AcDbEntity
  8
126
  6
Continuous
 62
     3
100
AcDbLine
 10
30.371262
 20
2.168105799999999
 30
0.0
 11
30.376032
 21
2.1951635
 31
0.0
  0
LINE
  5
309
330
22
100
AcDbEntity
  8
126
  6
Continuous
 62
     3
100
AcDbLine
 10
30.112845
 20
2.209123799999999
 30
0.0
 11
30.376061
 21
2.1953292
 31
0.0
  0
LINE
  5
30A
330
22
100
AcDbEntity
  8
126
  6
Continuous
 62
     3
100
AcDbLine
 10
31.933226
 20
2.276058
 30
0.0
 11
31.77895
 21
2.1608787
 31
0.0
  0
LINE
  5
30B
330
22
100
AcDbEntity
  8
126
  6
Continuous
 62
     3
100
AcDbLine
 10
31.933226
 20
2.276058
 30
0.0
 11
31.872006
 21
2.276058
 31
0.0
  0
LINE
  5
30C
330
22
100
AcDbEntity
  8
126
  6
Continuous
 62
     3
100
AcDbLine
 10
31.872006
 20
2.276058
 30
0.0
 11
31.758654
 21
2.191432199999999
 31
0.0
  0
LINE
  5
30D
330
22
100
AcDbEntity
  8
126
  6
Continuous
 62
     3
100
AcDbLine
 10
30.112845
 20
2.1545627
 30
0.0
 11
30.371262
 21
2.168105799999999
 31
0.0
  0
ARC
  5
30E
330
22
100
AcDbEntity
  8
126
  6
Continuous
 62
     3
100
AcDbCircle
 10
30.115721
 20
2.0996811
 30
0.0
 40
0.054956901
100
AcDbArc
 50
93.000068
 51
194.5403399999999
  0
LINE
  5
30F
330
22
100
AcDbEntity
  8
126
  6
Continuous
 62
     3
100
AcDbLine
 10
30.062525
 20
2.085883599999998
 30
0.0
 11
30.066906
 21
2.0705357
 31
0.0
  0
LINE
  5
310
330
22
100
AcDbEntity
  8
126
  6
Continuous
 62
     3
100
AcDbLine
 10
30.066906
 20
2.0705357
 30
0.0
 11
30.071922
 21
2.0558193
 31
0.0
  0
LINE
  5
311
330
22
100
AcDbEntity
  8
126
  6
Continuous
 62
     3
100
AcDbLine
 10
30.071922
 20
2.0558193
 30
0.0
 11
30.077547
 21
2.0418177
 31
0.0
  0
LINE
  5
312
330
22
100
AcDbEntity
  8
126
  6
Continuous
 62
     3
100
AcDbLine
 10
30.077547
 20
2.0418177
 30
0.0
 11
30.083746
 21
2.028610899999998
 31
0.0
  0
LINE
  5
313
330
22
100
AcDbEntity
  8
126
  6
Continuous
 62
     3
100
AcDbLine
 10
30.083746
 20
2.028610899999998
 30
0.0
 11
30.090487
 21
2.016273299999999
 31
0.0
  0
LINE
  5
314
330
22
100
AcDbEntity
  8
126
  6
Continuous
 62
     3
100
AcDbLine
 10
30.090487
 20
2.016273299999999
 30
0.0
 11
30.097727
 21
2.004875199999998
 31
0.0
  0
LINE
  5
315
330
22
100
AcDbEntity
  8
126
  6
Continuous
 62
     3
100
AcDbLine
 10
30.097727
 20
2.004875199999998
 30
0.0
 11
30.105429
 21
1.9944811
 31
0.0
  0
LINE
  5
316
330
22
100
AcDbEntity
  8
126
  6
Continuous
 62
     3
100
AcDbLine
 10
30.105429
 20
1.9944811
 30
0.0
 11
30.113548
 21
1.985150199999999
 31
0.0
  0
LINE
  5
317
330
22
100
AcDbEntity
  8
126
  6
Continuous
 62
     3
100
AcDbLine
 10
30.113548
 20
1.985150199999999
 30
0.0
 11
30.122038
 21
1.976935299999999
 31
0.0
  0
LINE
  5
318
330
22
100
AcDbEntity
  8
126
  6
Continuous
 62
     3
100
AcDbLine
 10
30.122038
 20
1.976935299999999
 30
0.0
 11
30.13085
 21
1.9698828
 31
0.0
  0
LINE
  5
319
330
22
100
AcDbEntity
  8
126
  6
Continuous
 62
     3
100
AcDbLine
 10
30.13085
 20
1.9698828
 30
0.0
 11
30.139936
 21
1.9640331
 31
0.0
  0
LINE
  5
31A
330
22
100
AcDbEntity
  8
126
  6
Continuous
 62
     3
100
AcDbLine
 10
30.139936
 20
1.9640331
 30
0.0
 11
30.149242
 21
1.9594193
 31
0.0
  0
LINE
  5
31B
330
22
100
AcDbEntity
  8
126
  6
Continuous
 62
     3
100
AcDbLine
 10
30.149242
 20
1.9594193
 30
0.0
 11
30.158716
 21
1.956067299999999
 31
0.0
  0
LINE
  5
31C
330
22
100
AcDbEntity
  8
126
  6
Continuous
 62
     3
100
AcDbLine
 10
30.158716
 20
1.956067299999999
 30
0.0
 11
30.168306
 21
1.953996499999998
 31
0.0
  0
LINE
  5
31D
330
22
100
AcDbEntity
  8
126
  6
Continuous
 62
     3
100
AcDbLine
 10
30.168306
 20
1.953996499999998
 30
0.0
 11
30.177956
 21
1.953218299999999
 31
0.0
  0
LINE
  5
31E
330
22
100
AcDbEntity
  8
126
  6
Continuous
 62
     3
100
AcDbLine
 10
30.177956
 20
1.953218299999999
 30
0.0
 11
30.187611
 21
1.953737399999999
 31
0.0
  0
LINE
  5
31F
330
22
100
AcDbEntity
  8
126
  6
Continuous
 62
     3
100
AcDbLine
 10
30.187611
 20
1.953737399999999
 30
0.0
 11
30.197218
 21
1.955550699999999
 31
0.0
  0
LINE
  5
320
330
22
100
AcDbEntity
  8
126
  6
Continuous
 62
     3
100
AcDbLine
 10
30.197218
 20
1.955550699999999
 30
0.0
 11
30.20672
 21
1.958647999999999
 31
0.0
  0
LINE
  5
321
330
22
100
AcDbEntity
  8
126
  6
Continuous
 62
     3
100
AcDbLine
 10
30.20672
 20
1.958647999999999
 30
0.0
 11
30.21606500000001
 21
1.9630115
 31
0.0
  0
LINE
  5
322
330
22
100
AcDbEntity
  8
126
  6
Continuous
 62
     3
100
AcDbLine
 10
30.21606500000001
 20
1.9630115
 30
0.0
 11
30.225197
 21
1.9686167
 31
0.0
  0
LINE
  5
323
330
22
100
AcDbEntity
  8
126
  6
Continuous
 62
     3
100
AcDbLine
 10
30.225197
 20
1.9686167
 30
0.0
 11
30.234068
 21
1.975431799999999
 31
0.0
  0
LINE
  5
324
330
22
100
AcDbEntity
  8
126
  6
Continuous
 62
     3
100
AcDbLine
 10
30.234068
 20
1.975431799999999
 30
0.0
 11
30.242626
 21
1.983418
 31
0.0
  0
LINE
  5
325
330
22
100
AcDbEntity
  8
126
  6
Continuous
 62
     3
100
AcDbLine
 10
30.242626
 20
1.983418
 30
0.0
 11
30.250824
 21
1.99253
 31
0.0
  0
LINE
  5
326
330
22
100
AcDbEntity
  8
126
  6
Continuous
 62
     3
100
AcDbLine
 10
30.250824
 20
1.99253
 30
0.0
 11
30.258612
 21
2.0027161
 31
0.0
  0
LINE
  5
327
330
22
100
AcDbEntity
  8
126
  6
Continuous
 62
     3
100
AcDbLine
 10
30.258612
 20
2.0027161
 30
0.0
 11
30.265949
 21
2.0139186
 31
0.0
  0
LINE
  5
328
330
22
100
AcDbEntity
  8
126
  6
Continuous
 62
     3
100
AcDbLine
 10
30.265949
 20
2.0139186
 30
0.0
 11
30.272793
 21
2.026073899999999
 31
0.0
  0
LINE
  5
329
330
22
100
AcDbEntity
  8
126
  6
Continuous
 62
     3
100
AcDbLine
 10
30.272793
 20
2.026073899999999
 30
0.0
 11
30.279102
 21
2.039112999999999
 31
0.0
  0
LINE
  5
32A
330
22
100
AcDbEntity
  8
126
  6
Continuous
 62
     3
100
AcDbLine
 10
30.279102
 20
2.039112999999999
 30
0.0
 11
30.284843
 21
2.0529618
 31
0.0
  0
LINE
  5
32B
330
22
100
AcDbEntity
  8
126
  6
Continuous
 62
     3
100
AcDbLine
 10
30.284843
 20
2.0529618
 30
0.0
 11
30.289986
 21
2.0675421
 31
0.0
  0
LINE
  5
32C
330
22
100
AcDbEntity
  8
126
  6
Continuous
 62
     3
100
AcDbLine
 10
30.289986
 20
2.0675421
 30
0.0
 11
30.294495
 21
2.0827706
 31
0.0
  0
LINE
  5
32D
330
22
100
AcDbEntity
  8
126
  6
Continuous
 62
     3
100
AcDbLine
 10
30.294495
 20
2.0827706
 30
0.0
 11
30.298351
 21
2.0985615
 31
0.0
  0
LINE
  5
32E
330
22
100
AcDbEntity
  8
126
  6
Continuous
 62
     3
100
AcDbLine
 10
30.298351
 20
2.0985615
 30
0.0
 11
30.301527
 21
2.1148248
 31
0.0
  0
LINE
  5
32F
330
22
100
AcDbEntity
  8
126
  6
Continuous
 62
     3
100
AcDbLine
 10
30.301527
 20
2.1148248
 30
0.0
 11
30.30401
 21
2.131468299999998
 31
0.0
  0
LINE
  5
330
330
22
100
AcDbEntity
  8
126
  6
Continuous
 62
     3
100
AcDbLine
 10
30.30401
 20
2.232218299999999
 30
0.0
 11
30.301527
 21
2.248861799999998
 31
0.0
  0
LINE
  5
331
330
22
100
AcDbEntity
  8
126
  6
Continuous
 62
     3
100
AcDbLine
 10
30.301527
 20
2.248861799999998
 30
0.0
 11
30.298351
 21
2.265125299999998
 31
0.0
  0
LINE
  5
332
330
22
100
AcDbEntity
  8
126
  6
Continuous
 62
     3
100
AcDbLine
 10
30.298351
 20
2.265125299999998
 30
0.0
 11
30.294495
 21
2.280915999999999
 31
0.0
  0
LINE
  5
333
330
22
100
AcDbEntity
  8
126
  6
Continuous
 62
     3
100
AcDbLine
 10
30.294495
 20
2.280915999999999
 30
0.0
 11
30.289986
 21
2.2961447
 31
0.0
  0
LINE
  5
334
330
22
100
AcDbEntity
  8
126
  6
Continuous
 62
     3
100
AcDbLine
 10
30.289986
 20
2.2961447
 30
0.0
 11
30.284843
 21
2.3107247
 31
0.0
  0
LINE
  5
335
330
22
100
AcDbEntity
  8
126
  6
Continuous
 62
     3
100
AcDbLine
 10
30.284843
 20
2.3107247
 30
0.0
 11
30.279102
 21
2.324573799999999
 31
0.0
  0
LINE
  5
336
330
22
100
AcDbEntity
  8
126
  6
Continuous
 62
     3
100
AcDbLine
 10
30.279102
 20
2.324573799999999
 30
0.0
 11
30.272793
 21
2.337612899999998
 31
0.0
  0
LINE
  5
337
330
22
100
AcDbEntity
  8
126
  6
Continuous
 62
     3
100
AcDbLine
 10
30.272793
 20
2.337612899999998
 30
0.0
 11
30.265949
 21
2.349767899999998
 31
0.0
  0
LINE
  5
338
330
22
100
AcDbEntity
  8
126
  6
Continuous
 62
     3
100
AcDbLine
 10
30.265949
 20
2.349767899999998
 30
0.0
 11
30.258612
 21
2.3609705
 31
0.0
  0
LINE
  5
339
330
22
100
AcDbEntity
  8
126
  6
Continuous
 62
     3
100
AcDbLine
 10
30.258612
 20
2.3609705
 30
0.0
 11
30.250824
 21
2.3711567
 31
0.0
  0
LINE
  5
33A
330
22
100
AcDbEntity
  8
126
  6
Continuous
 62
     3
100
AcDbLine
 10
30.250824
 20
2.3711567
 30
0.0
 11
30.242626
 21
2.380268599999999
 31
0.0
  0
LINE
  5
33B
330
22
100
AcDbEntity
  8
126
  6
Continuous
 62
     3
100
AcDbLine
 10
30.242626
 20
2.380268599999999
 30
0.0
 11
30.234068
 21
2.388254899999999
 31
0.0
  0
LINE
  5
33C
330
22
100
AcDbEntity
  8
126
  6
Continuous
 62
     3
100
AcDbLine
 10
30.234068
 20
2.388254899999999
 30
0.0
 11
30.225197
 21
2.395069799999999
 31
0.0
  0
LINE
  5
33D
330
22
100
AcDbEntity
  8
126
  6
Continuous
 62
     3
100
AcDbLine
 10
30.225197
 20
2.395069799999999
 30
0.0
 11
30.21606500000001
 21
2.400675099999999
 31
0.0
  0
LINE
  5
33E
330
22
100
AcDbEntity
  8
126
  6
Continuous
 62
     3
100
AcDbLine
 10
30.21606500000001
 20
2.400675099999999
 30
0.0
 11
30.20672
 21
2.4050386
 31
0.0
  0
LINE
  5
33F
330
22
100
AcDbEntity
  8
126
  6
Continuous
 62
     3
100
AcDbLine
 10
30.20672
 20
2.4050386
 30
0.0
 11
30.197218
 21
2.408135899999999
 31
0.0
  0
LINE
  5
340
330
22
100
AcDbEntity
  8
126
  6
Continuous
 62
     3
100
AcDbLine
 10
30.197218
 20
2.408135899999999
 30
0.0
 11
30.187611
 21
2.4099491
 31
0.0
  0
LINE
  5
341
330
22
100
AcDbEntity
  8
126
  6
Continuous
 62
     3
100
AcDbLine
 10
30.187611
 20
2.4099491
 30
0.0
 11
30.177956
 21
2.4104681
 31
0.0
  0
LINE
  5
342
330
22
100
AcDbEntity
  8
126
  6
Continuous
 62
     3
100
AcDbLine
 10
30.177956
 20
2.4104681
 30
0.0
 11
30.168306
 21
2.4096901
 31
0.0
  0
LINE
  5
343
330
22
100
AcDbEntity
  8
126
  6
Continuous
 62
     3
100
AcDbLine
 10
30.168306
 20
2.4096901
 30
0.0
 11
30.158716
 21
2.4076192
 31
0.0
  0
LINE
  5
344
330
22
100
AcDbEntity
  8
126
  6
Continuous
 62
     3
100
AcDbLine
 10
30.158716
 20
2.4076192
 30
0.0
 11
30.149242
 21
2.404267299999998
 31
0.0
  0
LINE
  5
345
330
22
100
AcDbEntity
  8
126
  6
Continuous
 62
     3
100
AcDbLine
 10
30.149242
 20
2.404267299999998
 30
0.0
 11
30.139936
 21
2.3996534
 31
0.0
  0
LINE
  5
346
330
22
100
AcDbEntity
  8
126
  6
Continuous
 62
     3
100
AcDbLine
 10
30.139936
 20
2.3996534
 30
0.0
 11
30.13085
 21
2.3938036
 31
0.0
  0
LINE
  5
347
330
22
100
AcDbEntity
  8
126
  6
Continuous
 62
     3
100
AcDbLine
 10
30.13085
 20
2.3938036
 30
0.0
 11
30.122038
 21
2.3867514
 31
0.0
  0
LINE
  5
348
330
22
100
AcDbEntity
  8
126
  6
Continuous
 62
     3
100
AcDbLine
 10
30.122038
 20
2.3867514
 30
0.0
 11
30.113548
 21
2.3785365
 31
0.0
  0
LINE
  5
349
330
22
100
AcDbEntity
  8
126
  6
Continuous
 62
     3
100
AcDbLine
 10
30.113548
 20
2.3785365
 30
0.0
 11
30.105429
 21
2.3692055
 31
0.0
  0
LINE
  5
34A
330
22
100
AcDbEntity
  8
126
  6
Continuous
 62
     3
100
AcDbLine
 10
30.105429
 20
2.3692055
 30
0.0
 11
30.097727
 21
2.358811399999999
 31
0.0
  0
LINE
  5
34B
330
22
100
AcDbEntity
  8
126
  6
Continuous
 62
     3
100
AcDbLine
 10
30.097727
 20
2.358811399999999
 30
0.0
 11
30.090487
 21
2.347413299999999
 31
0.0
  0
LINE
  5
34C
330
22
100
AcDbEntity
  8
126
  6
Continuous
 62
     3
100
AcDbLine
 10
30.090487
 20
2.347413299999999
 30
0.0
 11
30.083746
 21
2.335075899999999
 31
0.0
  0
LINE
  5
34D
330
22
100
AcDbEntity
  8
126
  6
Continuous
 62
     3
100
AcDbLine
 10
30.083746
 20
2.335075899999999
 30
0.0
 11
30.077547
 21
2.321868899999999
 31
0.0
  0
LINE
  5
34E
330
22
100
AcDbEntity
  8
126
  6
Continuous
 62
     3
100
AcDbLine
 10
30.077547
 20
2.321868899999999
 30
0.0
 11
30.071922
 21
2.307867499999999
 31
0.0
  0
LINE
  5
34F
330
22
100
AcDbEntity
  8
126
  6
Continuous
 62
     3
100
AcDbLine
 10
30.071922
 20
2.307867499999999
 30
0.0
 11
30.066906
 21
2.293150899999999
 31
0.0
  0
LINE
  5
350
330
22
100
AcDbEntity
  8
126
  6
Continuous
 62
     3
100
AcDbLine
 10
30.066906
 20
2.293150899999999
 30
0.0
 11
30.062525
 21
2.277802899999999
 31
0.0
  0
LINE
  5
351
330
22
100
AcDbEntity
  8
126
  6
Continuous
 62
     3
100
AcDbLine
 10
30.30401
 20
2.232218299999999
 30
0.0
 11
30.33852
 21
2.232218299999999
 31
0.0
  0
LINE
  5
352
330
22
100
AcDbEntity
  8
126
  6
Continuous
 62
     3
100
AcDbLine
 10
30.30401
 20
2.131468299999998
 30
0.0
 11
30.33852
 21
2.131468299999998
 31
0.0
  0
LINE
  5
353
330
22
100
AcDbEntity
  8
126
  6
Continuous
 62
     3
100
AcDbLine
 10
30.33852
 20
2.232218299999999
 30
0.0
 11
30.33635
 21
2.247070799999999
 31
0.0
  0
LINE
  5
354
330
22
100
AcDbEntity
  8
126
  6
Continuous
 62
     3
100
AcDbLine
 10
30.33635
 20
2.247070799999999
 30
0.0
 11
30.333626
 21
2.261709199999998
 31
0.0
  0
LINE
  5
355
330
22
100
AcDbEntity
  8
126
  6
Continuous
 62
     3
100
AcDbLine
 10
30.333626
 20
2.261709199999998
 30
0.0
 11
30.330357
 21
2.276085399999999
 31
0.0
  0
LINE
  5
356
330
22
100
AcDbEntity
  8
126
  6
Continuous
 62
     3
100
AcDbLine
 10
30.330357
 20
2.276085399999999
 30
0.0
 11
30.326553
 21
2.290152299999999
 31
0.0
  0
LINE
  5
357
330
22
100
AcDbEntity
  8
126
  6
Continuous
 62
     3
100
AcDbLine
 10
30.326553
 20
2.290152299999999
 30
0.0
 11
30.322229
 21
2.303863799999998
 31
0.0
  0
LINE
  5
358
330
22
100
AcDbEntity
  8
126
  6
Continuous
 62
     3
100
AcDbLine
 10
30.322229
 20
2.303863799999998
 30
0.0
 11
30.317398
 21
2.317174899999999
 31
0.0
  0
LINE
  5
359
330
22
100
AcDbEntity
  8
126
  6
Continuous
 62
     3
100
AcDbLine
 10
30.317398
 20
2.317174899999999
 30
0.0
 11
30.312075
 21
2.330041599999999
 31
0.0
  0
LINE
  5
35A
330
22
100
AcDbEntity
  8
126
  6
Continuous
 62
     3
100
AcDbLine
 10
30.312075
 20
2.330041599999999
 30
0.0
 11
30.306276
 21
2.342422
 31
0.0
  0
LINE
  5
35B
330
22
100
AcDbEntity
  8
126
  6
Continuous
 62
     3
100
AcDbLine
 10
30.306276
 20
2.342422
 30
0.0
 11
30.300024
 21
2.354275499999999
 31
0.0
  0
LINE
  5
35C
330
22
100
AcDbEntity
  8
126
  6
Continuous
 62
     3
100
AcDbLine
 10
30.300024
 20
2.354275499999999
 30
0.0
 11
30.29333900000001
 21
2.3655629
 31
0.0
  0
LINE
  5
35D
330
22
100
AcDbEntity
  8
126
  6
Continuous
 62
     3
100
AcDbLine
 10
30.29333900000001
 20
2.3655629
 30
0.0
 11
30.28624000000001
 21
2.3762474
 31
0.0
  0
LINE
  5
35E
330
22
100
AcDbEntity
  8
126
  6
Continuous
 62
     3
100
AcDbLine
 10
30.28624000000001
 20
2.3762474
 30
0.0
 11
30.278751
 21
2.386293899999999
 31
0.0
  0
LINE
  5
35F
330
22
100
AcDbEntity
  8
126
  6
Continuous
 62
     3
100
AcDbLine
 10
30.278751
 20
2.386293899999999
 30
0.0
 11
30.270897
 21
2.395669499999999
 31
0.0
  0
LINE
  5
360
330
22
100
AcDbEntity
  8
126
  6
Continuous
 62
     3
100
AcDbLine
 10
30.270897
 20
2.395669499999999
 30
0.0
 11
30.262705
 21
2.4043431
 31
0.0
  0
LINE
  5
361
330
22
100
AcDbEntity
  8
126
  6
Continuous
 62
     3
100
AcDbLine
 10
30.262705
 20
2.4043431
 30
0.0
 11
30.25420200000001
 21
2.4122865
 31
0.0
  0
LINE
  5
362
330
22
100
AcDbEntity
  8
126
  6
Continuous
 62
     3
100
AcDbLine
 10
30.25420200000001
 20
2.4122865
 30
0.0
 11
30.245413
 21
2.419473599999999
 31
0.0
  0
LINE
  5
363
330
22
100
AcDbEntity
  8
126
  6
Continuous
 62
     3
100
AcDbLine
 10
30.245413
 20
2.419473599999999
 30
0.0
 11
30.23637
 21
2.4258807
 31
0.0
  0
LINE
  5
364
330
22
100
AcDbEntity
  8
126
  6
Continuous
 62
     3
100
AcDbLine
 10
30.23637
 20
2.4258807
 30
0.0
 11
30.22710200000001
 21
2.4314871
 31
0.0
  0
LINE
  5
365
330
22
100
AcDbEntity
  8
126
  6
Continuous
 62
     3
100
AcDbLine
 10
30.22710200000001
 20
2.4314871
 30
0.0
 11
30.217638
 21
2.436273799999999
 31
0.0
  0
LINE
  5
366
330
22
100
AcDbEntity
  8
126
  6
Continuous
 62
     3
100
AcDbLine
 10
30.217638
 20
2.436273799999999
 30
0.0
 11
30.20801
 21
2.440225799999999
 31
0.0
  0
LINE
  5
367
330
22
100
AcDbEntity
  8
126
  6
Continuous
 62
     3
100
AcDbLine
 10
30.20801
 20
2.440225799999999
 30
0.0
 11
30.19825
 21
2.4433296
 31
0.0
  0
LINE
  5
368
330
22
100
AcDbEntity
  8
126
  6
Continuous
 62
     3
100
AcDbLine
 10
30.19825
 20
2.4433296
 30
0.0
 11
30.188389
 21
2.445575199999999
 31
0.0
  0
LINE
  5
369
330
22
100
AcDbEntity
  8
126
  6
Continuous
 62
     3
100
AcDbLine
 10
30.188389
 20
2.445575199999999
 30
0.0
 11
30.17845900000001
 21
2.4469552
 31
0.0
  0
LINE
  5
36A
330
22
100
AcDbEntity
  8
126
  6
Continuous
 62
     3
100
AcDbLine
 10
30.17845900000001
 20
2.4469552
 30
0.0
 11
30.168495
 21
2.4474652
 31
0.0
  0
LINE
  5
36B
330
22
100
AcDbEntity
  8
126
  6
Continuous
 62
     3
100
AcDbLine
 10
30.168495
 20
2.4474652
 30
0.0
 11
30.158527
 21
2.447103299999999
 31
0.0
  0
LINE
  5
36C
330
22
100
AcDbEntity
  8
126
  6
Continuous
 62
     3
100
AcDbLine
 10
30.158527
 20
2.447103299999999
 30
0.0
 11
30.14859
 21
2.4458709
 31
0.0
  0
LINE
  5
36D
330
22
100
AcDbEntity
  8
126
  6
Continuous
 62
     3
100
AcDbLine
 10
30.14859
 20
2.4458709
 30
0.0
 11
30.138716
 21
2.443771799999999
 31
0.0
  0
LINE
  5
36E
330
22
100
AcDbEntity
  8
126
  6
Continuous
 62
     3
100
AcDbLine
 10
30.138716
 20
2.443771799999999
 30
0.0
 11
30.128937
 21
2.440813299999998
 31
0.0
  0
LINE
  5
36F
330
22
100
AcDbEntity
  8
126
  6
Continuous
 62
     3
100
AcDbLine
 10
30.128937
 20
2.440813299999998
 30
0.0
 11
30.119284
 21
2.437004799999999
 31
0.0
  0
LINE
  5
370
330
22
100
AcDbEntity
  8
126
  6
Continuous
 62
     3
100
AcDbLine
 10
30.119284
 20
2.437004799999999
 30
0.0
 11
30.109789
 21
2.4323587
 31
0.0
  0
LINE
  5
371
330
22
100
AcDbEntity
  8
126
  6
Continuous
 62
     3
100
AcDbLine
 10
30.109789
 20
2.4323587
 30
0.0
 11
30.100485
 21
2.4268904
 31
0.0
  0
LINE
  5
372
330
22
100
AcDbEntity
  8
126
  6
Continuous
 62
     3
100
AcDbLine
 10
30.100485
 20
2.4268904
 30
0.0
 11
30.091402
 21
2.420618099999999
 31
0.0
  0
LINE
  5
373
330
22
100
AcDbEntity
  8
126
  6
Continuous
 62
     3
100
AcDbLine
 10
30.091402
 20
2.420618099999999
 30
0.0
 11
30.082569
 21
2.413561799999999
 31
0.0
  0
LINE
  5
374
330
22
100
AcDbEntity
  8
126
  6
Continuous
 62
     3
100
AcDbLine
 10
30.082569
 20
2.413561799999999
 30
0.0
 11
30.074015
 21
2.405745
 31
0.0
  0
LINE
  5
375
330
22
100
AcDbEntity
  8
126
  6
Continuous
 62
     3
100
AcDbLine
 10
30.074015
 20
2.405745
 30
0.0
 11
30.065767
 21
2.3971937
 31
0.0
  0
LINE
  5
376
330
22
100
AcDbEntity
  8
126
  6
Continuous
 62
     3
100
AcDbLine
 10
30.065767
 20
2.3971937
 30
0.0
 11
30.057856
 21
2.387935399999999
 31
0.0
  0
LINE
  5
377
330
22
100
AcDbEntity
  8
126
  6
Continuous
 62
     3
100
AcDbLine
 10
30.057856
 20
2.387935399999999
 30
0.0
 11
30.050303
 21
2.3780005
 31
0.0
  0
LINE
  5
378
330
22
100
AcDbEntity
  8
126
  6
Continuous
 62
     3
100
AcDbLine
 10
30.050303
 20
2.3780005
 30
0.0
 11
30.043137
 21
2.3674221
 31
0.0
  0
LINE
  5
379
330
22
100
AcDbEntity
  8
126
  6
Continuous
 62
     3
100
AcDbLine
 10
30.043137
 20
2.3674221
 30
0.0
 11
30.036377
 21
2.3562346
 31
0.0
  0
LINE
  5
37A
330
22
100
AcDbEntity
  8
126
  6
Continuous
 62
     3
100
AcDbLine
 10
30.036377
 20
2.3562346
 30
0.0
 11
30.03005
 21
2.344474599999998
 31
0.0
  0
LINE
  5
37B
330
22
100
AcDbEntity
  8
126
  6
Continuous
 62
     3
100
AcDbLine
 10
30.03005
 20
2.344474599999998
 30
0.0
 11
30.024174
 21
2.332181
 31
0.0
  0
LINE
  5
37C
330
22
100
AcDbEntity
  8
126
  6
Continuous
 62
     3
100
AcDbLine
 10
30.024174
 20
2.332181
 30
0.0
 11
30.018768
 21
2.319393899999999
 31
0.0
  0
LINE
  5
37D
330
22
100
AcDbEntity
  8
126
  6
Continuous
 62
     3
100
AcDbLine
 10
30.018768
 20
2.319393899999999
 30
0.0
 11
30.01385300000001
 21
2.3061552
 31
0.0
  0
LINE
  5
37E
330
22
100
AcDbEntity
  8
126
  6
Continuous
 62
     3
100
AcDbLine
 10
30.01385300000001
 20
2.3061552
 30
0.0
 11
30.009441
 21
2.2925086
 31
0.0
  0
LINE
  5
37F
330
22
100
AcDbEntity
  8
126
  6
Continuous
 62
     3
100
AcDbLine
 10
30.009441
 20
2.2925086
 30
0.0
 11
30.005549
 21
2.278498899999999
 31
0.0
  0
LINE
  5
380
330
22
100
AcDbEntity
  8
126
  6
Continuous
 62
     3
100
AcDbLine
 10
30.005549
 20
2.278498899999999
 30
0.0
 11
30.002188
 21
2.264171799999999
 31
0.0
  0
LINE
  5
381
330
22
100
AcDbEntity
  8
126
  6
Continuous
 62
     3
100
AcDbLine
 10
30.002188
 20
2.264171799999999
 30
0.0
 11
29.999371
 21
2.2495747
 31
0.0
  0
LINE
  5
382
330
22
100
AcDbEntity
  8
126
  6
Continuous
 62
     3
100
AcDbLine
 10
29.999371
 20
2.2495747
 30
0.0
 11
29.997107
 21
2.234755299999998
 31
0.0
  0
LINE
  5
383
330
22
100
AcDbEntity
  8
126
  6
Continuous
 62
     3
100
AcDbLine
 10
29.997107
 20
2.234755299999998
 30
0.0
 11
29.995401
 21
2.2197621
 31
0.0
  0
LINE
  5
384
330
22
100
AcDbEntity
  8
126
  6
Continuous
 62
     3
100
AcDbLine
 10
29.995401
 20
2.2197621
 30
0.0
 11
29.994261
 21
2.204644399999998
 31
0.0
  0
LINE
  5
385
330
22
100
AcDbEntity
  8
126
  6
Continuous
 62
     3
100
AcDbLine
 10
29.994261
 20
2.204644399999998
 30
0.0
 11
29.993689
 21
2.189451899999999
 31
0.0
  0
LINE
  5
386
330
22
100
AcDbEntity
  8
126
  6
Continuous
 62
     3
100
AcDbLine
 10
29.993689
 20
2.189451899999999
 30
0.0
 11
29.993689
 21
2.1742346
 31
0.0
  0
LINE
  5
387
330
22
100
AcDbEntity
  8
126
  6
Continuous
 62
     3
100
AcDbLine
 10
29.993689
 20
2.1742346
 30
0.0
 11
29.994261
 21
2.1590421
 31
0.0
  0
LINE
  5
388
330
22
100
AcDbEntity
  8
126
  6
Continuous
 62
     3
100
AcDbLine
 10
29.994261
 20
2.1590421
 30
0.0
 11
29.995401
 21
2.1439247
 31
0.0
  0
LINE
  5
389
330
22
100
AcDbEntity
  8
126
  6
Continuous
 62
     3
100
AcDbLine
 10
29.995401
 20
2.1439247
 30
0.0
 11
29.997107
 21
2.128931499999999
 31
0.0
  0
LINE
  5
38A
330
22
100
AcDbEntity
  8
126
  6
Continuous
 62
     3
100
AcDbLine
 10
29.997107
 20
2.128931499999999
 30
0.0
 11
29.999371
 21
2.114111899999999
 31
0.0
  0
LINE
  5
38B
330
22
100
AcDbEntity
  8
126
  6
Continuous
 62
     3
100
AcDbLine
 10
29.999371
 20
2.114111899999999
 30
0.0
 11
30.002188
 21
2.0995147
 31
0.0
  0
LINE
  5
38C
330
22
100
AcDbEntity
  8
126
  6
Continuous
 62
     3
100
AcDbLine
 10
30.002188
 20
2.0995147
 30
0.0
 11
30.005549
 21
2.0851877
 31
0.0
  0
LINE
  5
38D
330
22
100
AcDbEntity
  8
126
  6
Continuous
 62
     3
100
AcDbLine
 10
30.005549
 20
2.0851877
 30
0.0
 11
30.009441
 21
2.071177999999999
 31
0.0
  0
LINE
  5
38E
330
22
100
AcDbEntity
  8
126
  6
Continuous
 62
     3
100
AcDbLine
 10
30.009441
 20
2.071177999999999
 30
0.0
 11
30.01385300000001
 21
2.057531399999998
 31
0.0
  0
LINE
  5
38F
330
22
100
AcDbEntity
  8
126
  6
Continuous
 62
     3
100
AcDbLine
 10
30.01385300000001
 20
2.057531399999998
 30
0.0
 11
30.018768
 21
2.044292899999998
 31
0.0
  0
LINE
  5
390
330
22
100
AcDbEntity
  8
126
  6
Continuous
 62
     3
100
AcDbLine
 10
30.018768
 20
2.044292899999998
 30
0.0
 11
30.024174
 21
2.0315058
 31
0.0
  0
LINE
  5
391
330
22
100
AcDbEntity
  8
126
  6
Continuous
 62
     3
100
AcDbLine
 10
30.024174
 20
2.0315058
 30
0.0
 11
30.03005
 21
2.019212
 31
0.0
  0
LINE
  5
392
330
22
100
AcDbEntity
  8
126
  6
Continuous
 62
     3
100
AcDbLine
 10
30.03005
 20
2.019212
 30
0.0
 11
30.036377
 21
2.007452
 31
0.0
  0
LINE
  5
393
330
22
100
AcDbEntity
  8
126
  6
Continuous
 62
     3
100
AcDbLine
 10
30.036377
 20
2.007452
 30
0.0
 11
30.043137
 21
1.9962645
 31
0.0
  0
LINE
  5
394
330
22
100
AcDbEntity
  8
126
  6
Continuous
 62
     3
100
AcDbLine
 10
30.043137
 20
1.9962645
 30
0.0
 11
30.050303
 21
1.9856859
 31
0.0
  0
LINE
  5
395
330
22
100
AcDbEntity
  8
126
  6
Continuous
 62
     3
100
AcDbLine
 10
30.050303
 20
1.9856859
 30
0.0
 11
30.057856
 21
1.975751299999999
 31
0.0
  0
LINE
  5
396
330
22
100
AcDbEntity
  8
126
  6
Continuous
 62
     3
100
AcDbLine
 10
30.057856
 20
1.975751299999999
 30
0.0
 11
30.065767
 21
1.966493
 31
0.0
  0
LINE
  5
397
330
22
100
AcDbEntity
  8
126
  6
Continuous
 62
     3
100
AcDbLine
 10
30.065767
 20
1.966493
 30
0.0
 11
30.074015
 21
1.9579414
 31
0.0
  0
LINE
  5
398
330
22
100
AcDbEntity
  8
126
  6
Continuous
 62
     3
100
AcDbLine
 10
30.074015
 20
1.9579414
 30
0.0
 11
30.082569
 21
1.950124699999999
 31
0.0
  0
LINE
  5
399
330
22
100
AcDbEntity
  8
126
  6
Continuous
 62
     3
100
AcDbLine
 10
30.082569
 20
1.950124699999999
 30
0.0
 11
30.091402
 21
1.9430686
 31
0.0
  0
LINE
  5
39A
330
22
100
AcDbEntity
  8
126
  6
Continuous
 62
     3
100
AcDbLine
 10
30.091402
 20
1.9430686
 30
0.0
 11
30.100485
 21
1.9367961
 31
0.0
  0
LINE
  5
39B
330
22
100
AcDbEntity
  8
126
  6
Continuous
 62
     3
100
AcDbLine
 10
30.100485
 20
1.9367961
 30
0.0
 11
30.109789
 21
1.931327899999999
 31
0.0
  0
LINE
  5
39C
330
22
100
AcDbEntity
  8
126
  6
Continuous
 62
     3
100
AcDbLine
 10
30.109789
 20
1.931327899999999
 30
0.0
 11
30.119284
 21
1.926681899999999
 31
0.0
  0
LINE
  5
39D
330
22
100
AcDbEntity
  8
126
  6
Continuous
 62
     3
100
AcDbLine
 10
30.119284
 20
1.926681899999999
 30
0.0
 11
30.128937
 21
1.9228733
 31
0.0
  0
LINE
  5
39E
330
22
100
AcDbEntity
  8
126
  6
Continuous
 62
     3
100
AcDbLine
 10
30.128937
 20
1.9228733
 30
0.0
 11
30.138716
 21
1.9199146
 31
0.0
  0
LINE
  5
39F
330
22
100
AcDbEntity
  8
126
  6
Continuous
 62
     3
100
AcDbLine
 10
30.138716
 20
1.9199146
 30
0.0
 11
30.14859
 21
1.9178157
 31
0.0
  0
LINE
  5
3A0
330
22
100
AcDbEntity
  8
126
  6
Continuous
 62
     3
100
AcDbLine
 10
30.14859
 20
1.9178157
 30
0.0
 11
30.158527
 21
1.916583199999999
 31
0.0
  0
LINE
  5
3A1
330
22
100
AcDbEntity
  8
126
  6
Continuous
 62
     3
100
AcDbLine
 10
30.158527
 20
1.916583199999999
 30
0.0
 11
30.168495
 21
1.916221399999999
 31
0.0
  0
LINE
  5
3A2
330
22
100
AcDbEntity
  8
126
  6
Continuous
 62
     3
100
AcDbLine
 10
30.168495
 20
1.916221399999999
 30
0.0
 11
30.17845900000001
 21
1.916731399999999
 31
0.0
  0
LINE
  5
3A3
330
22
100
AcDbEntity
  8
126
  6
Continuous
 62
     3
100
AcDbLine
 10
30.17845900000001
 20
1.916731399999999
 30
0.0
 11
30.188389
 21
1.918111299999999
 31
0.0
  0
LINE
  5
3A4
330
22
100
AcDbEntity
  8
126
  6
Continuous
 62
     3
100
AcDbLine
 10
30.188389
 20
1.918111299999999
 30
0.0
 11
30.19825
 21
1.920356999999999
 31
0.0
  0
LINE
  5
3A5
330
22
100
AcDbEntity
  8
126
  6
Continuous
 62
     3
100
AcDbLine
 10
30.19825
 20
1.920356999999999
 30
0.0
 11
30.20801
 21
1.923460799999999
 31
0.0
  0
LINE
  5
3A6
330
22
100
AcDbEntity
  8
126
  6
Continuous
 62
     3
100
AcDbLine
 10
30.20801
 20
1.923460799999999
 30
0.0
 11
30.217638
 21
1.9274126
 31
0.0
  0
LINE
  5
3A7
330
22
100
AcDbEntity
  8
126
  6
Continuous
 62
     3
100
AcDbLine
 10
30.217638
 20
1.9274126
 30
0.0
 11
30.22710200000001
 21
1.932199599999998
 31
0.0
  0
LINE
  5
3A8
330
22
100
AcDbEntity
  8
126
  6
Continuous
 62
     3
100
AcDbLine
 10
30.22710200000001
 20
1.932199599999998
 30
0.0
 11
30.23637
 21
1.937805799999999
 31
0.0
  0
LINE
  5
3A9
330
22
100
AcDbEntity
  8
126
  6
Continuous
 62
     3
100
AcDbLine
 10
30.23637
 20
1.937805799999999
 30
0.0
 11
30.245413
 21
1.944213
 31
0.0
  0
LINE
  5
3AA
330
22
100
AcDbEntity
  8
126
  6
Continuous
 62
     3
100
AcDbLine
 10
30.245413
 20
1.944213
 30
0.0
 11
30.25420200000001
 21
1.951399999999999
 31
0.0
  0
LINE
  5
3AB
330
22
100
AcDbEntity
  8
126
  6
Continuous
 62
     3
100
AcDbLine
 10
30.25420200000001
 20
1.951399999999999
 30
0.0
 11
30.262705
 21
1.9593436
 31
0.0
  0
LINE
  5
3AC
330
22
100
AcDbEntity
  8
126
  6
Continuous
 62
     3
100
AcDbLine
 10
30.262705
 20
1.9593436
 30
0.0
 11
30.270897
 21
1.968017199999999
 31
0.0
  0
LINE
  5
3AD
330
22
100
AcDbEntity
  8
126
  6
Continuous
 62
     3
100
AcDbLine
 10
30.270897
 20
1.968017199999999
 30
0.0
 11
30.278751
 21
1.9773927
 31
0.0
  0
LINE
  5
3AE
330
22
100
AcDbEntity
  8
126
  6
Continuous
 62
     3
100
AcDbLine
 10
30.278751
 20
1.9773927
 30
0.0
 11
30.28624000000001
 21
1.9874392
 31
0.0
  0
LINE
  5
3AF
330
22
100
AcDbEntity
  8
126
  6
Continuous
 62
     3
100
AcDbLine
 10
30.28624000000001
 20
1.9874392
 30
0.0
 11
30.29333900000001
 21
1.998123599999999
 31
0.0
  0
LINE
  5
3B0
330
22
100
AcDbEntity
  8
126
  6
Continuous
 62
     3
100
AcDbLine
 10
30.29333900000001
 20
1.998123599999999
 30
0.0
 11
30.300024
 21
2.009411099999999
 31
0.0
  0
LINE
  5
3B1
330
22
100
AcDbEntity
  8
126
  6
Continuous
 62
     3
100
AcDbLine
 10
30.300024
 20
2.009411099999999
 30
0.0
 11
30.306276
 21
2.021264599999998
 31
0.0
  0
LINE
  5
3B2
330
22
100
AcDbEntity
  8
126
  6
Continuous
 62
     3
100
AcDbLine
 10
30.306276
 20
2.021264599999998
 30
0.0
 11
30.312075
 21
2.0336449
 31
0.0
  0
LINE
  5
3B3
330
22
100
AcDbEntity
  8
126
  6
Continuous
 62
     3
100
AcDbLine
 10
30.312075
 20
2.0336449
 30
0.0
 11
30.317398
 21
2.0465119
 31
0.0
  0
LINE
  5
3B4
330
22
100
AcDbEntity
  8
126
  6
Continuous
 62
     3
100
AcDbLine
 10
30.317398
 20
2.0465119
 30
0.0
 11
30.322229
 21
2.0598228
 31
0.0
  0
LINE
  5
3B5
330
22
100
AcDbEntity
  8
126
  6
Continuous
 62
     3
100
AcDbLine
 10
30.322229
 20
2.0598228
 30
0.0
 11
30.326553
 21
2.073534299999999
 31
0.0
  0
LINE
  5
3B6
330
22
100
AcDbEntity
  8
126
  6
Continuous
 62
     3
100
AcDbLine
 10
30.326553
 20
2.073534299999999
 30
0.0
 11
30.330357
 21
2.087601199999999
 31
0.0
  0
LINE
  5
3B7
330
22
100
AcDbEntity
  8
126
  6
Continuous
 62
     3
100
AcDbLine
 10
30.330357
 20
2.087601199999999
 30
0.0
 11
30.333626
 21
2.1019776
 31
0.0
  0
LINE
  5
3B8
330
22
100
AcDbEntity
  8
126
  6
Continuous
 62
     3
100
AcDbLine
 10
30.333626
 20
2.1019776
 30
0.0
 11
30.33635
 21
2.116616
 31
0.0
  0
LINE
  5
3B9
330
22
100
AcDbEntity
  8
126
  6
Continuous
 62
     3
100
AcDbLine
 10
30.33635
 20
2.116616
 30
0.0
 11
30.33852
 21
2.131468299999998
 31
0.0
  0
LINE
  5
3BA
330
22
100
AcDbEntity
  8
126
  6
Continuous
 62
     3
100
AcDbLine
 10
30.710646
 20
2.087628599999999
 30
0.0
 11
30.715471
 21
2.1150036
 31
0.0
  0
LINE
  5
3BB
330
22
100
AcDbEntity
  8
126
  6
Continuous
 62
     3
100
AcDbLine
 10
30.496193
 20
2.1150036
 30
0.0
 11
30.505554
 21
2.168093399999999
 31
0.0
  0
LINE
  5
3BC
330
22
100
AcDbEntity
  8
126
  6
Continuous
 62
     3
100
AcDbLine
 10
30.70429600000001
 20
2.195593399999999
 30
0.0
 11
30.506823
 21
2.195593399999999
 31
0.0
  0
LINE
  5
3BD
330
22
100
AcDbEntity
  8
126
  6
Continuous
 62
     3
100
AcDbLine
 10
30.505554
 20
2.168093399999999
 30
0.0
 11
30.699448
 21
2.168093399999999
 31
0.0
  0
LINE
  5
3BE
330
22
100
AcDbEntity
  8
126
  6
Continuous
 62
     3
100
AcDbLine
 10
31.333799
 20
2.276058
 30
0.0
 11
31.190676
 21
2.194866399999999
 31
0.0
  0
LINE
  5
3BF
330
22
100
AcDbEntity
  8
126
  6
Continuous
 62
     3
100
AcDbLine
 10
30.496193
 20
2.1150036
 30
0.0
 11
30.715471
 21
2.1150036
 31
0.0
  0
LINE
  5
3C0
330
22
100
AcDbEntity
  8
126
  6
Continuous
 62
     3
100
AcDbLine
 10
30.980099
 20
2.087628599999999
 30
0.0
 11
30.984926
 21
2.1150036
 31
0.0
  0
LINE
  5
3C1
330
22
100
AcDbEntity
  8
126
  6
Continuous
 62
     3
100
AcDbLine
 10
31.259573
 20
2.276058
 30
0.0
 11
31.333799
 21
2.276058
 31
0.0
  0
LINE
  5
3C2
330
22
100
AcDbEntity
  8
126
  6
Continuous
 62
     3
100
AcDbLine
 10
31.226179
 20
2.087628599999999
 30
0.0
 11
31.3074
 21
2.087628599999999
 31
0.0
  0
LINE
  5
3C3
330
22
100
AcDbEntity
  8
126
  6
Continuous
 62
     3
100
AcDbLine
 10
31.0662
 20
2.1242537
 30
0.0
 11
31.059742
 21
2.087628599999999
 31
0.0
  0
LINE
  5
3C4
330
22
100
AcDbEntity
  8
126
  6
Continuous
 62
     3
100
AcDbLine
 10
31.092968
 20
2.276058
 30
0.0
 11
31.07445
 21
2.1710415
 31
0.0
  0
LINE
  5
3C5
330
22
100
AcDbEntity
  8
126
  6
Continuous
 62
     3
100
AcDbLine
 10
31.481438
 20
2.276058
 30
0.0
 11
31.572937
 21
2.276058
 31
0.0
  0
LINE
  5
3C6
330
22
100
AcDbEntity
  8
126
  6
Continuous
 62
     3
100
AcDbLine
 10
31.603544
 20
2.087628599999999
 30
0.0
 11
31.664562
 21
2.087628599999999
 31
0.0
  0
LINE
  5
3C7
330
22
100
AcDbEntity
  8
126
  6
Continuous
 62
     3
100
AcDbLine
 10
31.140461
 20
2.166380399999999
 30
0.0
 11
31.0662
 21
2.1242537
 31
0.0
  0
LINE
  5
3C8
330
22
100
AcDbEntity
  8
126
  6
Continuous
 62
     3
100
AcDbLine
 10
31.259573
 20
2.276058
 30
0.0
 11
31.07445
 21
2.1710415
 31
0.0
  0
LINE
  5
3C9
330
22
100
AcDbEntity
  8
126
  6
Continuous
 62
     3
100
AcDbLine
 10
31.092968
 20
2.276058
 30
0.0
 11
31.0408
 21
2.276058
 31
0.0
  0
LINE
  5
3CA
330
22
100
AcDbEntity
  8
126
  6
Continuous
 62
     3
100
AcDbLine
 10
31.007574
 20
2.087628599999999
 30
0.0
 11
31.0408
 21
2.276058
 31
0.0
  0
LINE
  5
3CB
330
22
100
AcDbEntity
  8
126
  6
Continuous
 62
     3
100
AcDbLine
 10
31.3074
 20
2.087628599999999
 30
0.0
 11
31.190676
 21
2.194866399999999
 31
0.0
  0
LINE
  5
3CC
330
22
100
AcDbEntity
  8
126
  6
Continuous
 62
     3
100
AcDbLine
 10
31.226179
 20
2.087628599999999
 30
0.0
 11
31.140461
 21
2.166380399999999
 31
0.0
  0
LINE
  5
3CD
330
22
100
AcDbEntity
  8
126
  6
Continuous
 62
     3
100
AcDbLine
 10
31.059742
 20
2.087628599999999
 30
0.0
 11
31.007574
 21
2.087628599999999
 31
0.0
  0
LINE
  5
3CE
330
22
100
AcDbEntity
  8
126
  6
Continuous
 62
     3
100
AcDbLine
 10
31.316563
 20
2.087628599999999
 30
0.0
 11
31.365229
 21
2.087628599999999
 31
0.0
  0
LINE
  5
3CF
330
22
100
AcDbEntity
  8
126
  6
Continuous
 62
     3
100
AcDbLine
 10
31.420353
 20
2.1506286
 30
0.0
 11
31.518416
 21
2.262699399999998
 31
0.0
  0
LINE
  5
3D0
330
22
100
AcDbEntity
  8
126
  6
Continuous
 62
     3
100
AcDbLine
 10
31.57291
 20
2.1506286
 30
0.0
 11
31.518416
 21
2.262699399999998
 31
0.0
  0
LINE
  5
3D1
330
22
100
AcDbEntity
  8
126
  6
Continuous
 62
     3
100
AcDbLine
 10
31.316563
 20
2.087628599999999
 30
0.0
 11
31.481438
 21
2.276058
 31
0.0
  0
LINE
  5
3D2
330
22
100
AcDbEntity
  8
126
  6
Continuous
 62
     3
100
AcDbLine
 10
31.397276
 20
2.1242537
 30
0.0
 11
31.585735
 21
2.1242537
 31
0.0
  0
LINE
  5
3D3
330
22
100
AcDbEntity
  8
126
  6
Continuous
 62
     3
100
AcDbLine
 10
31.664562
 20
2.087628599999999
 30
0.0
 11
31.572937
 21
2.276058
 31
0.0
  0
LINE
  5
3D4
330
22
100
AcDbEntity
  8
126
  6
Continuous
 62
     3
100
AcDbLine
 10
31.420353
 20
2.1506286
 30
0.0
 11
31.57291
 21
2.1506286
 31
0.0
  0
LINE
  5
3D5
330
22
100
AcDbEntity
  8
126
  6
Continuous
 62
     3
100
AcDbLine
 10
31.365229
 20
2.087628599999999
 30
0.0
 11
31.397276
 21
2.1242537
 31
0.0
  0
LINE
  5
3D6
330
22
100
AcDbEntity
  8
126
  6
Continuous
 62
     3
100
AcDbLine
 10
31.603544
 20
2.087628599999999
 30
0.0
 11
31.585735
 21
2.1242537
 31
0.0
  0
LINE
  5
3D7
330
22
100
AcDbEntity
  8
126
  6
Continuous
 62
     3
100
AcDbLine
 10
31.872006
 20
2.276058
 30
0.0
 11
31.933226
 21
2.276058
 31
0.0
  0
LINE
  5
3D8
330
22
100
AcDbEntity
  8
126
  6
Continuous
 62
     3
100
AcDbLine
 10
31.710312
 20
2.087628599999999
 30
0.0
 11
31.766033
 21
2.087628599999999
 31
0.0
  0
LINE
  5
3D9
330
22
100
AcDbEntity
  8
126
  6
Continuous
 62
     3
100
AcDbLine
 10
31.710312
 20
2.087628599999999
 30
0.0
 11
31.721447
 21
2.150779499999999
 31
0.0
  0
LINE
  5
3DA
330
22
100
AcDbEntity
  8
126
  6
Continuous
 62
     3
100
AcDbLine
 10
31.766033
 20
2.087628599999999
 30
0.0
 11
31.77895
 21
2.1608787
 31
0.0
  0
LINE
  5
3DB
330
22
100
AcDbEntity
  8
126
  6
Continuous
 62
     3
100
AcDbLine
 10
31.678972
 20
2.276058
 30
0.0
 11
31.758654
 21
2.191432199999999
 31
0.0
  0
LINE
  5
3DC
330
22
100
AcDbEntity
  8
126
  6
Continuous
 62
     3
100
AcDbLine
 10
31.721447
 20
2.150779499999999
 30
0.0
 11
31.603489
 21
2.276058
 31
0.0
  0
LINE
  5
3DD
330
22
100
AcDbEntity
  8
126
  6
Continuous
 62
     3
100
AcDbLine
 10
31.603489
 20
2.276058
 30
0.0
 11
31.678972
 21
2.276058
 31
0.0
  0
CIRCLE
  5
3DE
330
22
100
AcDbEntity
  8
126
  6
Continuous
 62
     3
100
AcDbCircle
 10
32.115162
 20
1.955243199999999
 30
0.0
 40
0.01
  0
CIRCLE
  5
3DF
330
22
100
AcDbEntity
  8
126
  6
Continuous
 62
     3
100
AcDbCircle
 10
32.115162
 20
1.955243199999999
 30
0.0
 40
0.005
  0
CIRCLE
  5
3E0
330
22
100
AcDbEntity
  8
126
  6
Continuous
 62
     3
100
AcDbCircle
 10
32.115162
 20
1.955243199999999
 30
0.0
 40
0.014999999
  0
LINE
  5
3E1
330
22
100
AcDbEntity
  8
180
  6
Continuous
 62
     6
100
AcDbLine
 10
29.936756
 20
1.867107
 30
0.0
 11
34.499256
 21
1.867107
 31
0.0
  0
INSERT
  5
3E2
330
22
100
AcDbEntity
  8
1
100
AcDbBlockReference
  2
*U4
 10
16.452284
 20
8.5753648
 30
0.0
  0
LINE
  5
3E3
330
22
100
AcDbEntity
  8
180
  6
Continuous
 62
     6
100
AcDbLine
 10
29.936756
 20
1.335857
 30
0.0
 11
34.499256
 21
1.335857
 31
0.0
  0
LINE
  5
3E4
330
22
100
AcDbEntity
  8
180
  6
Continuous
 62
     6
100
AcDbLine
 10
28.280506
 20
1.054607
 30
0.0
 11
34.499256
 21
1.054607
 31
0.0
  0
LINE
  5
3E5
330
22
100
AcDbEntity
  8
180
  6
Continuous
 62
     6
100
AcDbLine
 10
31.436756
 20
0.773357
 30
0.0
 11
32.936756
 21
0.773357
 31
0.0
  0
INSERT
  5
3E6
330
22
100
AcDbEntity
  8
1
100
AcDbBlockReference
  2
*D8
 10
0.0
 20
0.0
 30
0.0
  0
LINE
  5
3E7
330
22
100
AcDbEntity
  8
180
  6
Continuous
 62
     6
100
AcDbLine
 10
31.436756
 20
1.335857
 30
0.0
 11
31.436756
 21
0.492107
 31
0.0
  0
LINE
  5
3E8
330
22
100
AcDbEntity
  8
180
  6
Continuous
 62
     6
100
AcDbLine
 10
32.936756
 20
1.335857
 30
0.0
 11
32.936756
 21
0.492107
 31
0.0
  0
LINE
  5
3E9
330
22
100
AcDbEntity
  8
180
  6
Continuous
 62
     6
100
AcDbLine
 10
28.280506
 20
1.882732
 30
0.0
 11
29.936756
 21
1.882732
 31
0.0
  0
LINE
  5
3EA
330
22
100
AcDbEntity
  8
180
  6
Continuous
 62
     6
100
AcDbLine
 10
28.280506
 20
1.851482
 30
0.0
 11
29.936756
 21
1.851482
 31
0.0
  0
TEXT
  5
3EB
330
22
100
AcDbEntity
  8
180
  6
Continuous
 62
     1
100
AcDbText
 10
33.055253
 20
0.6529600000000002
 30
0.0
 40
0.16
  1
74180295
 41
1.047619099999999
 51
359.9999958057
100
AcDbText
  0
TEXT
  5
3EC
330
22
100
AcDbEntity
  8
1
  6
Continuous
 62
     3
100
AcDbText
 10
30.76982800000001
 20
1.145662199999998
 30
0.0
 40
0.125
  1
JFM
 41
1.047619099999999
 51
359.9999958057
100
AcDbText
  0
LINE
  5
3ED
330
22
100
AcDbEntity
  8
180
  6
Continuous
 62
     6
100
AcDbLine
 10
28.280506
 20
2.492107199999999
 30
0.0
 11
28.280506
 21
0.492107
 31
0.0
  0
LINE
  5
3EE
330
22
100
AcDbEntity
  8
180
  6
Continuous
 62
     6
100
AcDbLine
 10
28.280506
 20
2.492107199999999
 30
0.0
 11
34.499256
 21
2.492107199999999
 31
0.0
  0
TEXT
  5
3EF
330
22
100
AcDbEntity
  8
1
  6
Continuous
 62
     1
100
AcDbText
 10
33.4561
 20
1.1452321
 30
0.0
 40
0.1
  1
1 : 1
 41
1.047619199999998
 51
359.9999958057
100
AcDbText
  0
INSERT
  5
3F0
330
22
100
AcDbEntity
  8
180
100
AcDbBlockReference
  2
*U0
 10
32.273043
 20
1.6220482
 30
0.0
  0
INSERT
  5
3F1
330
22
100
AcDbEntity
  8
1
100
AcDbBlockReference
  2
*U1
 10
29.985231
 20
0.791714
 30
0.0
  0
TEXT
  5
3F2
330
22
100
AcDbEntity
  8
1
  6
Continuous
 62
     3
100
AcDbText
 10
14.50124
 20
15.244461
 30
0.0
 40
0.5
  1
74180295
100
AcDbText
  0
TEXT
  5
3F3
330
22
100
AcDbEntity
  8
1
  6
Continuous
 62
     3
100
AcDbText
 10
32.272504
 20
1.126983499999999
 30
0.0
 40
0.125
  1
PW
 41
1.047619099999999
 51
359.9999958057
100
AcDbText
  0
TEXT
  5
3F4
330
22
100
AcDbEntity
  8
1
  6
Continuous
 62
     3
100
AcDbText
 10
32.272504
 20
0.8457334999999998
 30
0.0
 40
0.125
  1
PW
 41
1.047619099999999
 51
359.9999958057
100
AcDbText
  0
TEXT
  5
3F5
330
22
100
AcDbEntity
  8
1
  6
Continuous
 62
     1
100
AcDbText
 10
31.940669
 20
0.5917156000000002
 30
0.0
 40
0.1
  1
08JAN03
 41
1.047619
 51
359.9999958057
100
AcDbText
  0
INSERT
  5
3F6
330
22
100
AcDbEntity
  8
1
100
AcDbBlockReference
  2
*U5
 10
28.027355
 20
0.5875208000000001
 30
0.0
  0
INSERT
  5
3F7
330
22
100
AcDbEntity
  8
126
100
AcDbBlockReference
  2
*D9
 10
0.0
 20
0.0
 30
0.0
  0
INSERT
  5
3F8
330
22
100
AcDbEntity
  8
1
100
AcDbBlockReference
  2
*U6
 10
17.121072
 20
14.264608
 30
0.0
  0
INSERT
  5
3F9
330
22
100
AcDbEntity
  8
1
100
AcDbBlockReference
  2
*D10
 10
0.0
 20
0.0
 30
0.0
  0
INSERT
  5
3FA
330
22
100
AcDbEntity
  8
126
100
AcDbBlockReference
  2
*D11
 10
0.0
 20
0.0
 30
0.0
  0
INSERT
  5
3FB
330
22
100
AcDbEntity
  8
1
100
AcDbBlockReference
  2
*D12
 10
0.0
 20
0.0
 30
0.0
  0
INSERT
  5
3FC
330
22
100
AcDbEntity
  8
1
100
AcDbBlockReference
  2
*U3
 10
14.150407
 20
14.264608
 30
0.0
  0
INSERT
  5
3FD
330
22
100
AcDbEntity
  8
1
100
AcDbBlockReference
  2
*U7
 10
30.190012
 20
3.553679699999998
 30
0.0
  0
CIRCLE
  5
3FE
330
22
100
AcDbEntity
  8
1
  6
Continuous
 62
     1
100
AcDbCircle
 10
16.279955
 20
12.758854
 30
0.0
 40
7.5
  0
ENDSEC
  0
SECTION
  2
OBJECTS
  0
DICTIONARY
  5
C
330
0
100
AcDbDictionary
281
     1
  3
ACAD_COLOR
350
1B
  3
ACAD_GROUP
350
D
  3
ACAD_LAYOUT
350
19
  3
ACAD_MATERIAL
350
1A
  3
ACAD_MLEADERSTYLE
350
45B
  3
ACAD_MLINESTYLE
350
16
  3
ACAD_PLOTSETTINGS
350
18
  3
ACAD_PLOTSTYLENAME
350
E
  3
ACAD_SCALELIST
350
439
  3
ACAD_TABLESTYLE
350
1C
  3
ACAD_VISUALSTYLE
350
425
  3
ACDB_RECOMPOSE_DATA
350
679
  3
AcDbVariableDictionary
350
400
  3
AcmDictionary
350
4B5
  3
AMG
350
495
  3
AMGSNAPSETTINGS
350
4F5
  3
DWGPROPS
350
67A
  0
DICTIONARY
  5
4FC
330
10
100
AcDbDictionary
280
     1
281
     1
  3
ADSK_XREC_LAYER_RECONCILED
360
4FD
  0
DICTIONARY
  5
4FE
330
26
100
AcDbDictionary
280
     1
281
     1
  3
ADSK_XREC_LAYER_RECONCILED
360
4FF
  0
DICTIONARY
  5
500
330
2E
100
AcDbDictionary
280
     1
281
     1
  3
ADSK_XREC_LAYER_RECONCILED
360
501
  0
DICTIONARY
  5
502
330
2F
100
AcDbDictionary
280
     1
281
     1
  3
ADSK_XREC_LAYER_RECONCILED
360
503
  0
DICTIONARY
  5
504
330
30
100
AcDbDictionary
280
     1
281
     1
  3
ADSK_XREC_LAYER_RECONCILED
360
505
  0
DICTIONARY
  5
506
330
31
100
AcDbDictionary
280
     1
281
     1
  3
ADSK_XREC_LAYER_RECONCILED
360
507
  0
DICTIONARY
  5
508
330
32
100
AcDbDictionary
280
     1
281
     1
  3
ADSK_XREC_LAYER_RECONCILED
360
509
  0
DICTIONARY
  5
50A
330
33
100
AcDbDictionary
280
     1
281
     1
  3
ADSK_XREC_LAYER_RECONCILED
360
50B
  0
DICTIONARY
  5
50C
330
34
100
AcDbDictionary
280
     1
281
     1
  3
ADSK_XREC_LAYER_RECONCILED
360
50D
  0
DICTIONARY
  5
50E
330
35
100
AcDbDictionary
280
     1
281
     1
  3
ADSK_XREC_LAYER_RECONCILED
360
50F
  0
DICTIONARY
  5
510
330
36
100
AcDbDictionary
280
     1
281
     1
  3
ADSK_XREC_LAYER_RECONCILED
360
511
  0
DICTIONARY
  5
512
330
37
100
AcDbDictionary
280
     1
281
     1
  3
ADSK_XREC_LAYER_RECONCILED
360
513
  0
DICTIONARY
  5
514
330
38
100
AcDbDictionary
280
     1
281
     1
  3
ADSK_XREC_LAYER_RECONCILED
360
515
  0
DICTIONARY
  5
516
330
39
100
AcDbDictionary
280
     1
281
     1
  3
ADSK_XREC_LAYER_RECONCILED
360
517
  0
DICTIONARY
  5
518
330
3A
100
AcDbDictionary
280
     1
281
     1
  3
ADSK_XREC_LAYER_RECONCILED
360
519
  0
DICTIONARY
  5
51A
330
3B
100
AcDbDictionary
280
     1
281
     1
  3
ADSK_XREC_LAYER_RECONCILED
360
51B
  0
DICTIONARY
  5
51C
330
3C
100
AcDbDictionary
280
     1
281
     1
  3
ADSK_XREC_LAYER_RECONCILED
360
51D
  0
DICTIONARY
  5
51E
330
3D
100
AcDbDictionary
280
     1
281
     1
  3
ADSK_XREC_LAYER_RECONCILED
360
51F
  0
DICTIONARY
  5
520
330
3E
100
AcDbDictionary
280
     1
281
     1
  3
ADSK_XREC_LAYER_RECONCILED
360
521
  0
DICTIONARY
  5
522
330
3F
100
AcDbDictionary
280
     1
281
     1
  3
ADSK_XREC_LAYER_RECONCILED
360
523
  0
DICTIONARY
  5
524
330
40
100
AcDbDictionary
280
     1
281
     1
  3
ADSK_XREC_LAYER_RECONCILED
360
525
  0
DICTIONARY
  5
526
330
41
100
AcDbDictionary
280
     1
281
     1
  3
ADSK_XREC_LAYER_RECONCILED
360
527
  0
DICTIONARY
  5
528
330
42
100
AcDbDictionary
280
     1
281
     1
  3
ADSK_XREC_LAYER_RECONCILED
360
529
  0
DICTIONARY
  5
52A
330
43
100
AcDbDictionary
280
     1
281
     1
  3
ADSK_XREC_LAYER_RECONCILED
360
52B
  0
DICTIONARY
  5
52C
330
44
100
AcDbDictionary
280
     1
281
     1
  3
ADSK_XREC_LAYER_RECONCILED
360
52D
  0
DICTIONARY
  5
52E
330
45
100
AcDbDictionary
280
     1
281
     1
  3
ADSK_XREC_LAYER_RECONCILED
360
52F
  0
DICTIONARY
  5
530
330
46
100
AcDbDictionary
280
     1
281
     1
  3
ADSK_XREC_LAYER_RECONCILED
360
531
  0
DICTIONARY
  5
532
330
47
100
AcDbDictionary
280
     1
281
     1
  3
ADSK_XREC_LAYER_RECONCILED
360
533
  0
DICTIONARY
  5
534
330
48
100
AcDbDictionary
280
     1
281
     1
  3
ADSK_XREC_LAYER_RECONCILED
360
535
  0
DICTIONARY
  5
536
330
49
100
AcDbDictionary
280
     1
281
     1
  3
ADSK_XREC_LAYER_RECONCILED
360
537
  0
DICTIONARY
  5
538
330
4A
100
AcDbDictionary
280
     1
281
     1
  3
ADSK_XREC_LAYER_RECONCILED
360
539
  0
DICTIONARY
  5
53A
330
4B
100
AcDbDictionary
280
     1
281
     1
  3
ADSK_XREC_LAYER_RECONCILED
360
53B
  0
DICTIONARY
  5
53C
330
4C
100
AcDbDictionary
280
     1
281
     1
  3
ADSK_XREC_LAYER_RECONCILED
360
53D
  0
DICTIONARY
  5
53E
330
4D
100
AcDbDictionary
280
     1
281
     1
  3
ADSK_XREC_LAYER_RECONCILED
360
53F
  0
DICTIONARY
  5
540
330
4E
100
AcDbDictionary
280
     1
281
     1
  3
ADSK_XREC_LAYER_RECONCILED
360
541
  0
DICTIONARY
  5
542
330
4F
100
AcDbDictionary
280
     1
281
     1
  3
ADSK_XREC_LAYER_RECONCILED
360
543
  0
DICTIONARY
  5
544
330
50
100
AcDbDictionary
280
     1
281
     1
  3
ADSK_XREC_LAYER_RECONCILED
360
545
  0
DICTIONARY
  5
546
330
51
100
AcDbDictionary
280
     1
281
     1
  3
ADSK_XREC_LAYER_RECONCILED
360
547
  0
DICTIONARY
  5
548
330
52
100
AcDbDictionary
280
     1
281
     1
  3
ADSK_XREC_LAYER_RECONCILED
360
549
  0
DICTIONARY
  5
54A
330
53
100
AcDbDictionary
280
     1
281
     1
  3
ADSK_XREC_LAYER_RECONCILED
360
54B
  0
DICTIONARY
  5
54C
330
54
100
AcDbDictionary
280
     1
281
     1
  3
ADSK_XREC_LAYER_RECONCILED
360
54D
  0
DICTIONARY
  5
54E
330
55
100
AcDbDictionary
280
     1
281
     1
  3
ADSK_XREC_LAYER_RECONCILED
360
54F
  0
DICTIONARY
  5
550
330
56
100
AcDbDictionary
280
     1
281
     1
  3
ADSK_XREC_LAYER_RECONCILED
360
551
  0
DICTIONARY
  5
552
330
57
100
AcDbDictionary
280
     1
281
     1
  3
ADSK_XREC_LAYER_RECONCILED
360
553
  0
DICTIONARY
  5
554
330
58
100
AcDbDictionary
280
     1
281
     1
  3
ADSK_XREC_LAYER_RECONCILED
360
555
  0
DICTIONARY
  5
556
330
59
100
AcDbDictionary
280
     1
281
     1
  3
ADSK_XREC_LAYER_RECONCILED
360
557
  0
DICTIONARY
  5
558
330
5A
100
AcDbDictionary
280
     1
281
     1
  3
ADSK_XREC_LAYER_RECONCILED
360
559
  0
DICTIONARY
  5
55A
330
5B
100
AcDbDictionary
280
     1
281
     1
  3
ADSK_XREC_LAYER_RECONCILED
360
55B
  0
DICTIONARY
  5
55C
330
5C
100
AcDbDictionary
280
     1
281
     1
  3
ADSK_XREC_LAYER_RECONCILED
360
55D
  0
DICTIONARY
  5
55E
330
5D
100
AcDbDictionary
280
     1
281
     1
  3
ADSK_XREC_LAYER_RECONCILED
360
55F
  0
DICTIONARY
  5
560
330
5E
100
AcDbDictionary
280
     1
281
     1
  3
ADSK_XREC_LAYER_RECONCILED
360
561
  0
DICTIONARY
  5
562
330
5F
100
AcDbDictionary
280
     1
281
     1
  3
ADSK_XREC_LAYER_RECONCILED
360
563
  0
DICTIONARY
  5
564
330
60
100
AcDbDictionary
280
     1
281
     1
  3
ADSK_XREC_LAYER_RECONCILED
360
565
  0
DICTIONARY
  5
566
330
61
100
AcDbDictionary
280
     1
281
     1
  3
ADSK_XREC_LAYER_RECONCILED
360
567
  0
DICTIONARY
  5
568
330
62
100
AcDbDictionary
280
     1
281
     1
  3
ADSK_XREC_LAYER_RECONCILED
360
569
  0
DICTIONARY
  5
56A
330
63
100
AcDbDictionary
280
     1
281
     1
  3
ADSK_XREC_LAYER_RECONCILED
360
56B
  0
DICTIONARY
  5
56C
330
64
100
AcDbDictionary
280
     1
281
     1
  3
ADSK_XREC_LAYER_RECONCILED
360
56D
  0
DICTIONARY
  5
56E
330
65
100
AcDbDictionary
280
     1
281
     1
  3
ADSK_XREC_LAYER_RECONCILED
360
56F
  0
DICTIONARY
  5
570
330
66
100
AcDbDictionary
280
     1
281
     1
  3
ADSK_XREC_LAYER_RECONCILED
360
571
  0
DICTIONARY
  5
572
330
67
100
AcDbDictionary
280
     1
281
     1
  3
ADSK_XREC_LAYER_RECONCILED
360
573
  0
DICTIONARY
  5
574
330
68
100
AcDbDictionary
280
     1
281
     1
  3
ADSK_XREC_LAYER_RECONCILED
360
575
  0
DICTIONARY
  5
576
330
69
100
AcDbDictionary
280
     1
281
     1
  3
ADSK_XREC_LAYER_RECONCILED
360
577
  0
DICTIONARY
  5
578
330
6A
100
AcDbDictionary
280
     1
281
     1
  3
ADSK_XREC_LAYER_RECONCILED
360
579
  0
DICTIONARY
  5
57A
330
6B
100
AcDbDictionary
280
     1
281
     1
  3
ADSK_XREC_LAYER_RECONCILED
360
57B
  0
DICTIONARY
  5
57C
330
6C
100
AcDbDictionary
280
     1
281
     1
  3
ADSK_XREC_LAYER_RECONCILED
360
57D
  0
DICTIONARY
  5
57E
330
6D
100
AcDbDictionary
280
     1
281
     1
  3
ADSK_XREC_LAYER_RECONCILED
360
57F
  0
DICTIONARY
  5
580
330
6E
100
AcDbDictionary
280
     1
281
     1
  3
ADSK_XREC_LAYER_RECONCILED
360
581
  0
DICTIONARY
  5
582
330
6F
100
AcDbDictionary
280
     1
281
     1
  3
ADSK_XREC_LAYER_RECONCILED
360
583
  0
DICTIONARY
  5
584
330
70
100
AcDbDictionary
280
     1
281
     1
  3
ADSK_XREC_LAYER_RECONCILED
360
585
  0
DICTIONARY
  5
586
330
71
100
AcDbDictionary
280
     1
281
     1
  3
ADSK_XREC_LAYER_RECONCILED
360
587
  0
DICTIONARY
  5
588
330
72
100
AcDbDictionary
280
     1
281
     1
  3
ADSK_XREC_LAYER_RECONCILED
360
589
  0
DICTIONARY
  5
58A
330
73
100
AcDbDictionary
280
     1
281
     1
  3
ADSK_XREC_LAYER_RECONCILED
360
58B
  0
DICTIONARY
  5
58C
330
74
100
AcDbDictionary
280
     1
281
     1
  3
ADSK_XREC_LAYER_RECONCILED
360
58D
  0
DICTIONARY
  5
58E
330
75
100
AcDbDictionary
280
     1
281
     1
  3
ADSK_XREC_LAYER_RECONCILED
360
58F
  0
DICTIONARY
  5
590
330
76
100
AcDbDictionary
280
     1
281
     1
  3
ADSK_XREC_LAYER_RECONCILED
360
591
  0
DICTIONARY
  5
592
330
77
100
AcDbDictionary
280
     1
281
     1
  3
ADSK_XREC_LAYER_RECONCILED
360
593
  0
DICTIONARY
  5
594
330
78
100
AcDbDictionary
280
     1
281
     1
  3
ADSK_XREC_LAYER_RECONCILED
360
595
  0
DICTIONARY
  5
596
330
79
100
AcDbDictionary
280
     1
281
     1
  3
ADSK_XREC_LAYER_RECONCILED
360
597
  0
DICTIONARY
  5
598
330
7A
100
AcDbDictionary
280
     1
281
     1
  3
ADSK_XREC_LAYER_RECONCILED
360
599
  0
DICTIONARY
  5
59A
330
7B
100
AcDbDictionary
280
     1
281
     1
  3
ADSK_XREC_LAYER_RECONCILED
360
59B
  0
DICTIONARY
  5
59C
330
7C
100
AcDbDictionary
280
     1
281
     1
  3
ADSK_XREC_LAYER_RECONCILED
360
59D
  0
DICTIONARY
  5
59E
330
7D
100
AcDbDictionary
280
     1
281
     1
  3
ADSK_XREC_LAYER_RECONCILED
360
59F
  0
DICTIONARY
  5
5A0
330
7E
100
AcDbDictionary
280
     1
281
     1
  3
ADSK_XREC_LAYER_RECONCILED
360
5A1
  0
DICTIONARY
  5
5A2
330
7F
100
AcDbDictionary
280
     1
281
     1
  3
ADSK_XREC_LAYER_RECONCILED
360
5A3
  0
DICTIONARY
  5
5A4
330
80
100
AcDbDictionary
280
     1
281
     1
  3
ADSK_XREC_LAYER_RECONCILED
360
5A5
  0
DICTIONARY
  5
5A6
330
81
100
AcDbDictionary
280
     1
281
     1
  3
ADSK_XREC_LAYER_RECONCILED
360
5A7
  0
DICTIONARY
  5
5A8
330
82
100
AcDbDictionary
280
     1
281
     1
  3
ADSK_XREC_LAYER_RECONCILED
360
5A9
  0
DICTIONARY
  5
5AA
330
83
100
AcDbDictionary
280
     1
281
     1
  3
ADSK_XREC_LAYER_RECONCILED
360
5AB
  0
DICTIONARY
  5
5AC
330
84
100
AcDbDictionary
280
     1
281
     1
  3
ADSK_XREC_LAYER_RECONCILED
360
5AD
  0
DICTIONARY
  5
5AE
330
85
100
AcDbDictionary
280
     1
281
     1
  3
ADSK_XREC_LAYER_RECONCILED
360
5AF
  0
DICTIONARY
  5
5B0
330
86
100
AcDbDictionary
280
     1
281
     1
  3
ADSK_XREC_LAYER_RECONCILED
360
5B1
  0
DICTIONARY
  5
5B2
330
87
100
AcDbDictionary
280
     1
281
     1
  3
ADSK_XREC_LAYER_RECONCILED
360
5B3
  0
DICTIONARY
  5
5B4
330
88
100
AcDbDictionary
280
     1
281
     1
  3
ADSK_XREC_LAYER_RECONCILED
360
5B5
  0
DICTIONARY
  5
5B6
330
89
100
AcDbDictionary
280
     1
281
     1
  3
ADSK_XREC_LAYER_RECONCILED
360
5B7
  0
DICTIONARY
  5
5B8
330
8A
100
AcDbDictionary
280
     1
281
     1
  3
ADSK_XREC_LAYER_RECONCILED
360
5B9
  0
DICTIONARY
  5
5BA
330
8B
100
AcDbDictionary
280
     1
281
     1
  3
ADSK_XREC_LAYER_RECONCILED
360
5BB
  0
DICTIONARY
  5
5BC
330
8C
100
AcDbDictionary
280
     1
281
     1
  3
ADSK_XREC_LAYER_RECONCILED
360
5BD
  0
DICTIONARY
  5
5BE
330
8D
100
AcDbDictionary
280
     1
281
     1
  3
ADSK_XREC_LAYER_RECONCILED
360
5BF
  0
DICTIONARY
  5
5C0
330
8E
100
AcDbDictionary
280
     1
281
     1
  3
ADSK_XREC_LAYER_RECONCILED
360
5C1
  0
DICTIONARY
  5
5C2
330
8F
100
AcDbDictionary
280
     1
281
     1
  3
ADSK_XREC_LAYER_RECONCILED
360
5C3
  0
DICTIONARY
  5
5C4
330
90
100
AcDbDictionary
280
     1
281
     1
  3
ADSK_XREC_LAYER_RECONCILED
360
5C5
  0
DICTIONARY
  5
5C6
330
91
100
AcDbDictionary
280
     1
281
     1
  3
ADSK_XREC_LAYER_RECONCILED
360
5C7
  0
DICTIONARY
  5
5C8
330
92
100
AcDbDictionary
280
     1
281
     1
  3
ADSK_XREC_LAYER_RECONCILED
360
5C9
  0
DICTIONARY
  5
5CA
330
93
100
AcDbDictionary
280
     1
281
     1
  3
ADSK_XREC_LAYER_RECONCILED
360
5CB
  0
DICTIONARY
  5
5CC
330
94
100
AcDbDictionary
280
     1
281
     1
  3
ADSK_XREC_LAYER_RECONCILED
360
5CD
  0
DICTIONARY
  5
5CE
330
95
100
AcDbDictionary
280
     1
281
     1
  3
ADSK_XREC_LAYER_RECONCILED
360
5CF
  0
DICTIONARY
  5
5D0
330
96
100
AcDbDictionary
280
     1
281
     1
  3
ADSK_XREC_LAYER_RECONCILED
360
5D1
  0
DICTIONARY
  5
5D2
330
97
100
AcDbDictionary
280
     1
281
     1
  3
ADSK_XREC_LAYER_RECONCILED
360
5D3
  0
DICTIONARY
  5
5D4
330
98
100
AcDbDictionary
280
     1
281
     1
  3
ADSK_XREC_LAYER_RECONCILED
360
5D5
  0
DICTIONARY
  5
5D6
330
99
100
AcDbDictionary
280
     1
281
     1
  3
ADSK_XREC_LAYER_RECONCILED
360
5D7
  0
DICTIONARY
  5
5D8
330
9A
100
AcDbDictionary
280
     1
281
     1
  3
ADSK_XREC_LAYER_RECONCILED
360
5D9
  0
DICTIONARY
  5
5DA
330
9B
100
AcDbDictionary
280
     1
281
     1
  3
ADSK_XREC_LAYER_RECONCILED
360
5DB
  0
DICTIONARY
  5
5DC
330
9C
100
AcDbDictionary
280
     1
281
     1
  3
ADSK_XREC_LAYER_RECONCILED
360
5DD
  0
DICTIONARY
  5
5DE
330
9D
100
AcDbDictionary
280
     1
281
     1
  3
ADSK_XREC_LAYER_RECONCILED
360
5DF
  0
DICTIONARY
  5
5E0
330
9E
100
AcDbDictionary
280
     1
281
     1
  3
ADSK_XREC_LAYER_RECONCILED
360
5E1
  0
DICTIONARY
  5
5E2
330
9F
100
AcDbDictionary
280
     1
281
     1
  3
ADSK_XREC_LAYER_RECONCILED
360
5E3
  0
DICTIONARY
  5
5E4
330
A0
100
AcDbDictionary
280
     1
281
     1
  3
ADSK_XREC_LAYER_RECONCILED
360
5E5
  0
DICTIONARY
  5
5E6
330
A1
100
AcDbDictionary
280
     1
281
     1
  3
ADSK_XREC_LAYER_RECONCILED
360
5E7
  0
DICTIONARY
  5
5E8
330
A2
100
AcDbDictionary
280
     1
281
     1
  3
ADSK_XREC_LAYER_RECONCILED
360
5E9
  0
DICTIONARY
  5
5EA
330
A3
100
AcDbDictionary
280
     1
281
     1
  3
ADSK_XREC_LAYER_RECONCILED
360
5EB
  0
DICTIONARY
  5
5EC
330
A4
100
AcDbDictionary
280
     1
281
     1
  3
ADSK_XREC_LAYER_RECONCILED
360
5ED
  0
DICTIONARY
  5
5EE
330
A5
100
AcDbDictionary
280
     1
281
     1
  3
ADSK_XREC_LAYER_RECONCILED
360
5EF
  0
DICTIONARY
  5
5F0
330
A6
100
AcDbDictionary
280
     1
281
     1
  3
ADSK_XREC_LAYER_RECONCILED
360
5F1
  0
DICTIONARY
  5
5F2
330
A7
100
AcDbDictionary
280
     1
281
     1
  3
ADSK_XREC_LAYER_RECONCILED
360
5F3
  0
DICTIONARY
  5
5F4
330
A8
100
AcDbDictionary
280
     1
281
     1
  3
ADSK_XREC_LAYER_RECONCILED
360
5F5
  0
DICTIONARY
  5
5F6
330
A9
100
AcDbDictionary
280
     1
281
     1
  3
ADSK_XREC_LAYER_RECONCILED
360
5F7
  0
DICTIONARY
  5
5F8
330
AA
100
AcDbDictionary
280
     1
281
     1
  3
ADSK_XREC_LAYER_RECONCILED
360
5F9
  0
DICTIONARY
  5
5FA
330
AB
100
AcDbDictionary
280
     1
281
     1
  3
ADSK_XREC_LAYER_RECONCILED
360
5FB
  0
DICTIONARY
  5
5FC
330
AC
100
AcDbDictionary
280
     1
281
     1
  3
ADSK_XREC_LAYER_RECONCILED
360
5FD
  0
DICTIONARY
  5
5FE
330
AD
100
AcDbDictionary
280
     1
281
     1
  3
ADSK_XREC_LAYER_RECONCILED
360
5FF
  0
DICTIONARY
  5
600
330
AE
100
AcDbDictionary
280
     1
281
     1
  3
ADSK_XREC_LAYER_RECONCILED
360
601
  0
DICTIONARY
  5
602
330
AF
100
AcDbDictionary
280
     1
281
     1
  3
ADSK_XREC_LAYER_RECONCILED
360
603
  0
DICTIONARY
  5
604
330
B0
100
AcDbDictionary
280
     1
281
     1
  3
ADSK_XREC_LAYER_RECONCILED
360
605
  0
DICTIONARY
  5
606
330
B1
100
AcDbDictionary
280
     1
281
     1
  3
ADSK_XREC_LAYER_RECONCILED
360
607
  0
DICTIONARY
  5
608
330
B2
100
AcDbDictionary
280
     1
281
     1
  3
ADSK_XREC_LAYER_RECONCILED
360
609
  0
DICTIONARY
  5
60A
330
B3
100
AcDbDictionary
280
     1
281
     1
  3
ADSK_XREC_LAYER_RECONCILED
360
60B
  0
DICTIONARY
  5
60C
330
B4
100
AcDbDictionary
280
     1
281
     1
  3
ADSK_XREC_LAYER_RECONCILED
360
60D
  0
DICTIONARY
  5
60E
330
B5
100
AcDbDictionary
280
     1
281
     1
  3
ADSK_XREC_LAYER_RECONCILED
360
60F
  0
DICTIONARY
  5
610
330
B6
100
AcDbDictionary
280
     1
281
     1
  3
ADSK_XREC_LAYER_RECONCILED
360
611
  0
DICTIONARY
  5
612
330
B7
100
AcDbDictionary
280
     1
281
     1
  3
ADSK_XREC_LAYER_RECONCILED
360
613
  0
DICTIONARY
  5
614
330
B8
100
AcDbDictionary
280
     1
281
     1
  3
ADSK_XREC_LAYER_RECONCILED
360
615
  0
DICTIONARY
  5
616
330
B9
100
AcDbDictionary
280
     1
281
     1
  3
ADSK_XREC_LAYER_RECONCILED
360
617
  0
DICTIONARY
  5
618
330
BA
100
AcDbDictionary
280
     1
281
     1
  3
ADSK_XREC_LAYER_RECONCILED
360
619
  0
DICTIONARY
  5
61A
330
BB
100
AcDbDictionary
280
     1
281
     1
  3
ADSK_XREC_LAYER_RECONCILED
360
61B
  0
DICTIONARY
  5
61C
330
BC
100
AcDbDictionary
280
     1
281
     1
  3
ADSK_XREC_LAYER_RECONCILED
360
61D
  0
DICTIONARY
  5
61E
330
BD
100
AcDbDictionary
280
     1
281
     1
  3
ADSK_XREC_LAYER_RECONCILED
360
61F
  0
DICTIONARY
  5
620
330
BE
100
AcDbDictionary
280
     1
281
     1
  3
ADSK_XREC_LAYER_RECONCILED
360
621
  0
DICTIONARY
  5
622
330
BF
100
AcDbDictionary
280
     1
281
     1
  3
ADSK_XREC_LAYER_RECONCILED
360
623
  0
DICTIONARY
  5
624
330
C0
100
AcDbDictionary
280
     1
281
     1
  3
ADSK_XREC_LAYER_RECONCILED
360
625
  0
DICTIONARY
  5
626
330
C1
100
AcDbDictionary
280
     1
281
     1
  3
ADSK_XREC_LAYER_RECONCILED
360
627
  0
DICTIONARY
  5
628
330
C2
100
AcDbDictionary
280
     1
281
     1
  3
ADSK_XREC_LAYER_RECONCILED
360
629
  0
DICTIONARY
  5
62A
330
C3
100
AcDbDictionary
280
     1
281
     1
  3
ADSK_XREC_LAYER_RECONCILED
360
62B
  0
DICTIONARY
  5
62C
330
C4
100
AcDbDictionary
280
     1
281
     1
  3
ADSK_XREC_LAYER_RECONCILED
360
62D
  0
DICTIONARY
  5
62E
330
C5
100
AcDbDictionary
280
     1
281
     1
  3
ADSK_XREC_LAYER_RECONCILED
360
62F
  0
DICTIONARY
  5
630
330
C6
100
AcDbDictionary
280
     1
281
     1
  3
ADSK_XREC_LAYER_RECONCILED
360
631
  0
DICTIONARY
  5
632
330
C7
100
AcDbDictionary
280
     1
281
     1
  3
ADSK_XREC_LAYER_RECONCILED
360
633
  0
DICTIONARY
  5
634
330
C8
100
AcDbDictionary
280
     1
281
     1
  3
ADSK_XREC_LAYER_RECONCILED
360
635
  0
DICTIONARY
  5
636
330
C9
100
AcDbDictionary
280
     1
281
     1
  3
ADSK_XREC_LAYER_RECONCILED
360
637
  0
DICTIONARY
  5
638
330
CA
100
AcDbDictionary
280
     1
281
     1
  3
ADSK_XREC_LAYER_RECONCILED
360
639
  0
DICTIONARY
  5
63A
330
CB
100
AcDbDictionary
280
     1
281
     1
  3
ADSK_XREC_LAYER_RECONCILED
360
63B
  0
DICTIONARY
  5
63C
330
CC
100
AcDbDictionary
280
     1
281
     1
  3
ADSK_XREC_LAYER_RECONCILED
360
63D
  0
DICTIONARY
  5
63E
330
CD
100
AcDbDictionary
280
     1
281
     1
  3
ADSK_XREC_LAYER_RECONCILED
360
63F
  0
DICTIONARY
  5
640
330
CE
100
AcDbDictionary
280
     1
281
     1
  3
ADSK_XREC_LAYER_RECONCILED
360
641
  0
DICTIONARY
  5
642
330
CF
100
AcDbDictionary
280
     1
281
     1
  3
ADSK_XREC_LAYER_RECONCILED
360
643
  0
DICTIONARY
  5
644
330
D0
100
AcDbDictionary
280
     1
281
     1
  3
ADSK_XREC_LAYER_RECONCILED
360
645
  0
DICTIONARY
  5
646
330
D1
100
AcDbDictionary
280
     1
281
     1
  3
ADSK_XREC_LAYER_RECONCILED
360
647
  0
DICTIONARY
  5
648
330
D2
100
AcDbDictionary
280
     1
281
     1
  3
ADSK_XREC_LAYER_RECONCILED
360
649
  0
DICTIONARY
  5
64A
330
D3
100
AcDbDictionary
280
     1
281
     1
  3
ADSK_XREC_LAYER_RECONCILED
360
64B
  0
DICTIONARY
  5
64C
330
D4
100
AcDbDictionary
280
     1
281
     1
  3
ADSK_XREC_LAYER_RECONCILED
360
64D
  0
DICTIONARY
  5
64E
330
D5
100
AcDbDictionary
280
     1
281
     1
  3
ADSK_XREC_LAYER_RECONCILED
360
64F
  0
DICTIONARY
  5
650
330
D6
100
AcDbDictionary
280
     1
281
     1
  3
ADSK_XREC_LAYER_RECONCILED
360
651
  0
DICTIONARY
  5
652
330
D7
100
AcDbDictionary
280
     1
281
     1
  3
ADSK_XREC_LAYER_RECONCILED
360
653
  0
DICTIONARY
  5
654
330
D8
100
AcDbDictionary
280
     1
281
     1
  3
ADSK_XREC_LAYER_RECONCILED
360
655
  0
DICTIONARY
  5
656
330
D9
100
AcDbDictionary
280
     1
281
     1
  3
ADSK_XREC_LAYER_RECONCILED
360
657
  0
DICTIONARY
  5
658
330
DA
100
AcDbDictionary
280
     1
281
     1
  3
ADSK_XREC_LAYER_RECONCILED
360
659
  0
DICTIONARY
  5
65A
330
DB
100
AcDbDictionary
280
     1
281
     1
  3
ADSK_XREC_LAYER_RECONCILED
360
65B
  0
DICTIONARY
  5
65C
330
DC
100
AcDbDictionary
280
     1
281
     1
  3
ADSK_XREC_LAYER_RECONCILED
360
65D
  0
DICTIONARY
  5
65E
330
DD
100
AcDbDictionary
280
     1
281
     1
  3
ADSK_XREC_LAYER_RECONCILED
360
65F
  0
DICTIONARY
  5
660
330
DE
100
AcDbDictionary
280
     1
281
     1
  3
ADSK_XREC_LAYER_RECONCILED
360
661
  0
DICTIONARY
  5
662
330
DF
100
AcDbDictionary
280
     1
281
     1
  3
ADSK_XREC_LAYER_RECONCILED
360
663
  0
DICTIONARY
  5
664
330
E0
100
AcDbDictionary
280
     1
281
     1
  3
ADSK_XREC_LAYER_RECONCILED
360
665
  0
DICTIONARY
  5
666
330
E1
100
AcDbDictionary
280
     1
281
     1
  3
ADSK_XREC_LAYER_RECONCILED
360
667
  0
DICTIONARY
  5
1B
102
{ACAD_REACTORS
330
C
102
}
330
C
100
AcDbDictionary
281
     1
  0
DICTIONARY
  5
D
102
{ACAD_REACTORS
330
C
102
}
330
C
100
AcDbDictionary
281
     1
  0
DICTIONARY
  5
19
102
{ACAD_REACTORS
330
C
102
}
330
C
100
AcDbDictionary
281
     1
  3
Layout1
350
21
  3
Model
350
25
  0
DICTIONARY
  5
1A
102
{ACAD_REACTORS
330
C
102
}
330
C
100
AcDbDictionary
281
     1
  3
ByBlock
350
415
  3
ByLayer
350
40D
  3
Global
350
41D
  0
DICTIONARY
  5
45B
102
{ACAD_REACTORS
330
C
102
}
330
C
100
AcDbDictionary
281
     1
  3
Standard
350
45C
  0
DICTIONARY
  5
16
102
{ACAD_REACTORS
330
C
102
}
330
C
100
AcDbDictionary
281
     1
  3
Standard
350
17
  0
DICTIONARY
  5
18
102
{ACAD_REACTORS
330
C
102
}
330
C
100
AcDbDictionary
281
     1
  0
ACDBDICTIONARYWDFLT
  5
E
102
{ACAD_REACTORS
330
C
102
}
330
C
100
AcDbDictionary
281
     1
  3
Normal
350
F
100
AcDbDictionaryWithDefault
340
F
  0
DICTIONARY
  5
439
102
{ACAD_REACTORS
330
C
102
}
330
C
100
AcDbDictionary
281
     1
  3
A0
350
43A
  3
A1
350
43B
  3
A2
350
43C
  3
A3
350
43D
  3
A4
350
43E
  3
A5
350
43F
  3
A6
350
440
  3
A7
350
441
  3
A8
350
442
  3
A9
350
443
  3
B0
350
444
  3
B1
350
445
  3
B2
350
446
  3
B3
350
447
  3
B4
350
448
  3
B5
350
449
  3
B6
350
44A
  3
B7
350
44B
  3
B8
350
44C
  3
B9
350
44D
  3
C0
350
44E
  3
C1
350
44F
  3
C2
350
450
  3
C3
350
451
  3
C4
350
452
  3
C5
350
453
  3
C6
350
454
  3
C7
350
455
  3
C8
350
456
  3
C9
350
457
  3
D0
350
458
  3
D1
350
459
  3
D2
350
45A
  0
DICTIONARY
  5
1C
102
{ACAD_REACTORS
330
C
102
}
330
C
100
AcDbDictionary
281
     1
  3
Standard
350
1D
  0
DICTIONARY
  5
425
102
{ACAD_REACTORS
330
C
102
}
330
C
100
AcDbDictionary
281
     1
  3
2dWireframe
350
42B
  3
3D Hidden
350
42D
  3
3dWireframe
350
42C
  3
Basic
350
42A
  3
Brighten
350
431
  3
ColorChange
350
435
  3
Conceptual
350
42E
  3
Dim
350
430
  3
EdgeColorOff
350
438
  3
Facepattern
350
434
  3
Flat
350
426
  3
FlatWithEdges
350
427
  3
Gouraud
350
428
  3
GouraudWithEdges
350
429
  3
JitterOff
350
436
  3
Linepattern
350
433
  3
OverhangOff
350
437
  3
Realistic
350
42F
  3
Thicken
350
432
  0
XRECORD
  5
679
102
{ACAD_REACTORS
330
C
102
}
330
C
100
AcDbXrecord
280
     1
 90
        1
330
1D
  0
DICTIONARY
  5
400
102
{ACAD_REACTORS
330
C
102
}
330
C
100
AcDbDictionary
281
     1
  3
CANNOSCALE
350
673
  3
CMLEADERSTYLE
350
672
  3
CTABLESTYLE
350
401
  3
DIMASSOC
350
402
  3
INDEXCTL
350
675
  3
PROJECTNAME
350
403
  3
SORTENTS
350
674
  3
XCLIPFRAME
350
676
  0
DICTIONARY
  5
4B5
102
{ACAD_REACTORS
330
C
102
}
330
C
100
AcDbDictionary
281
     1
  3
AcmStdDictionary
350
4BF
  0
DICTIONARY
  5
495
102
{ACAD_REACTORS
330
C
102
}
330
C
100
AcDbDictionary
281
     1
  0
DICTIONARY
  5
4F5
102
{ACAD_REACTORS
330
C
102
}
330
C
100
AcDbDictionary
281
     1
  0
XRECORD
  5
67A
102
{ACAD_REACTORS
330
C
102
}
330
C
100
AcDbXrecord
280
     1
  1
DWGPROPS COOKIE
  2

  3

  4

  6

  7

  8
nick.oyenik
  9

300
=
301
=
302
=
303
=
304
=
305
=
306
=
307
=
308
=
309
=
 40
0.0016567476851852
 41
2454963.564300833
 42
2456519.349072546
  1

 90
        0
  0
XRECORD
  5
4FD
102
{ACAD_REACTORS
330
4FC
102
}
330
4FC
100
AcDbXrecord
280
     1
290
     1
  0
XRECORD
  5
4FF
102
{ACAD_REACTORS
330
4FE
102
}
330
4FE
100
AcDbXrecord
280
     1
290
     1
  0
XRECORD
  5
501
102
{ACAD_REACTORS
330
500
102
}
330
500
100
AcDbXrecord
280
     1
290
     1
  0
XRECORD
  5
503
102
{ACAD_REACTORS
330
502
102
}
330
502
100
AcDbXrecord
280
     1
290
     1
  0
XRECORD
  5
505
102
{ACAD_REACTORS
330
504
102
}
330
504
100
AcDbXrecord
280
     1
290
     1
  0
XRECORD
  5
507
102
{ACAD_REACTORS
330
506
102
}
330
506
100
AcDbXrecord
280
     1
290
     1
  0
XRECORD
  5
509
102
{ACAD_REACTORS
330
508
102
}
330
508
100
AcDbXrecord
280
     1
290
     1
  0
XRECORD
  5
50B
102
{ACAD_REACTORS
330
50A
102
}
330
50A
100
AcDbXrecord
280
     1
290
     1
  0
XRECORD
  5
50D
102
{ACAD_REACTORS
330
50C
102
}
330
50C
100
AcDbXrecord
280
     1
290
     1
  0
XRECORD
  5
50F
102
{ACAD_REACTORS
330
50E
102
}
330
50E
100
AcDbXrecord
280
     1
290
     1
  0
XRECORD
  5
511
102
{ACAD_REACTORS
330
510
102
}
330
510
100
AcDbXrecord
280
     1
290
     1
  0
XRECORD
  5
513
102
{ACAD_REACTORS
330
512
102
}
330
512
100
AcDbXrecord
280
     1
290
     1
  0
XRECORD
  5
515
102
{ACAD_REACTORS
330
514
102
}
330
514
100
AcDbXrecord
280
     1
290
     1
  0
XRECORD
  5
517
102
{ACAD_REACTORS
330
516
102
}
330
516
100
AcDbXrecord
280
     1
290
     1
  0
XRECORD
  5
519
102
{ACAD_REACTORS
330
518
102
}
330
518
100
AcDbXrecord
280
     1
290
     1
  0
XRECORD
  5
51B
102
{ACAD_REACTORS
330
51A
102
}
330
51A
100
AcDbXrecord
280
     1
290
     1
  0
XRECORD
  5
51D
102
{ACAD_REACTORS
330
51C
102
}
330
51C
100
AcDbXrecord
280
     1
290
     1
  0
XRECORD
  5
51F
102
{ACAD_REACTORS
330
51E
102
}
330
51E
100
AcDbXrecord
280
     1
290
     1
  0
XRECORD
  5
521
102
{ACAD_REACTORS
330
520
102
}
330
520
100
AcDbXrecord
280
     1
290
     1
  0
XRECORD
  5
523
102
{ACAD_REACTORS
330
522
102
}
330
522
100
AcDbXrecord
280
     1
290
     1
  0
XRECORD
  5
525
102
{ACAD_REACTORS
330
524
102
}
330
524
100
AcDbXrecord
280
     1
290
     1
  0
XRECORD
  5
527
102
{ACAD_REACTORS
330
526
102
}
330
526
100
AcDbXrecord
280
     1
290
     1
  0
XRECORD
  5
529
102
{ACAD_REACTORS
330
528
102
}
330
528
100
AcDbXrecord
280
     1
290
     1
  0
XRECORD
  5
52B
102
{ACAD_REACTORS
330
52A
102
}
330
52A
100
AcDbXrecord
280
     1
290
     1
  0
XRECORD
  5
52D
102
{ACAD_REACTORS
330
52C
102
}
330
52C
100
AcDbXrecord
280
     1
290
     1
  0
XRECORD
  5
52F
102
{ACAD_REACTORS
330
52E
102
}
330
52E
100
AcDbXrecord
280
     1
290
     1
  0
XRECORD
  5
531
102
{ACAD_REACTORS
330
530
102
}
330
530
100
AcDbXrecord
280
     1
290
     1
  0
XRECORD
  5
533
102
{ACAD_REACTORS
330
532
102
}
330
532
100
AcDbXrecord
280
     1
290
     1
  0
XRECORD
  5
535
102
{ACAD_REACTORS
330
534
102
}
330
534
100
AcDbXrecord
280
     1
290
     1
  0
XRECORD
  5
537
102
{ACAD_REACTORS
330
536
102
}
330
536
100
AcDbXrecord
280
     1
290
     1
  0
XRECORD
  5
539
102
{ACAD_REACTORS
330
538
102
}
330
538
100
AcDbXrecord
280
     1
290
     1
  0
XRECORD
  5
53B
102
{ACAD_REACTORS
330
53A
102
}
330
53A
100
AcDbXrecord
280
     1
290
     1
  0
XRECORD
  5
53D
102
{ACAD_REACTORS
330
53C
102
}
330
53C
100
AcDbXrecord
280
     1
290
     1
  0
XRECORD
  5
53F
102
{ACAD_REACTORS
330
53E
102
}
330
53E
100
AcDbXrecord
280
     1
290
     1
  0
XRECORD
  5
541
102
{ACAD_REACTORS
330
540
102
}
330
540
100
AcDbXrecord
280
     1
290
     1
  0
XRECORD
  5
543
102
{ACAD_REACTORS
330
542
102
}
330
542
100
AcDbXrecord
280
     1
290
     1
  0
XRECORD
  5
545
102
{ACAD_REACTORS
330
544
102
}
330
544
100
AcDbXrecord
280
     1
290
     1
  0
XRECORD
  5
547
102
{ACAD_REACTORS
330
546
102
}
330
546
100
AcDbXrecord
280
     1
290
     1
  0
XRECORD
  5
549
102
{ACAD_REACTORS
330
548
102
}
330
548
100
AcDbXrecord
280
     1
290
     1
  0
XRECORD
  5
54B
102
{ACAD_REACTORS
330
54A
102
}
330
54A
100
AcDbXrecord
280
     1
290
     1
  0
XRECORD
  5
54D
102
{ACAD_REACTORS
330
54C
102
}
330
54C
100
AcDbXrecord
280
     1
290
     1
  0
XRECORD
  5
54F
102
{ACAD_REACTORS
330
54E
102
}
330
54E
100
AcDbXrecord
280
     1
290
     1
  0
XRECORD
  5
551
102
{ACAD_REACTORS
330
550
102
}
330
550
100
AcDbXrecord
280
     1
290
     1
  0
XRECORD
  5
553
102
{ACAD_REACTORS
330
552
102
}
330
552
100
AcDbXrecord
280
     1
290
     1
  0
XRECORD
  5
555
102
{ACAD_REACTORS
330
554
102
}
330
554
100
AcDbXrecord
280
     1
290
     1
  0
XRECORD
  5
557
102
{ACAD_REACTORS
330
556
102
}
330
556
100
AcDbXrecord
280
     1
290
     1
  0
XRECORD
  5
559
102
{ACAD_REACTORS
330
558
102
}
330
558
100
AcDbXrecord
280
     1
290
     1
  0
XRECORD
  5
55B
102
{ACAD_REACTORS
330
55A
102
}
330
55A
100
AcDbXrecord
280
     1
290
     1
  0
XRECORD
  5
55D
102
{ACAD_REACTORS
330
55C
102
}
330
55C
100
AcDbXrecord
280
     1
290
     1
  0
XRECORD
  5
55F
102
{ACAD_REACTORS
330
55E
102
}
330
55E
100
AcDbXrecord
280
     1
290
     1
  0
XRECORD
  5
561
102
{ACAD_REACTORS
330
560
102
}
330
560
100
AcDbXrecord
280
     1
290
     1
  0
XRECORD
  5
563
102
{ACAD_REACTORS
330
562
102
}
330
562
100
AcDbXrecord
280
     1
290
     1
  0
XRECORD
  5
565
102
{ACAD_REACTORS
330
564
102
}
330
564
100
AcDbXrecord
280
     1
290
     1
  0
XRECORD
  5
567
102
{ACAD_REACTORS
330
566
102
}
330
566
100
AcDbXrecord
280
     1
290
     1
  0
XRECORD
  5
569
102
{ACAD_REACTORS
330
568
102
}
330
568
100
AcDbXrecord
280
     1
290
     1
  0
XRECORD
  5
56B
102
{ACAD_REACTORS
330
56A
102
}
330
56A
100
AcDbXrecord
280
     1
290
     1
  0
XRECORD
  5
56D
102
{ACAD_REACTORS
330
56C
102
}
330
56C
100
AcDbXrecord
280
     1
290
     1
  0
XRECORD
  5
56F
102
{ACAD_REACTORS
330
56E
102
}
330
56E
100
AcDbXrecord
280
     1
290
     1
  0
XRECORD
  5
571
102
{ACAD_REACTORS
330
570
102
}
330
570
100
AcDbXrecord
280
     1
290
     1
  0
XRECORD
  5
573
102
{ACAD_REACTORS
330
572
102
}
330
572
100
AcDbXrecord
280
     1
290
     1
  0
XRECORD
  5
575
102
{ACAD_REACTORS
330
574
102
}
330
574
100
AcDbXrecord
280
     1
290
     1
  0
XRECORD
  5
577
102
{ACAD_REACTORS
330
576
102
}
330
576
100
AcDbXrecord
280
     1
290
     1
  0
XRECORD
  5
579
102
{ACAD_REACTORS
330
578
102
}
330
578
100
AcDbXrecord
280
     1
290
     1
  0
XRECORD
  5
57B
102
{ACAD_REACTORS
330
57A
102
}
330
57A
100
AcDbXrecord
280
     1
290
     1
  0
XRECORD
  5
57D
102
{ACAD_REACTORS
330
57C
102
}
330
57C
100
AcDbXrecord
280
     1
290
     1
  0
XRECORD
  5
57F
102
{ACAD_REACTORS
330
57E
102
}
330
57E
100
AcDbXrecord
280
     1
290
     1
  0
XRECORD
  5
581
102
{ACAD_REACTORS
330
580
102
}
330
580
100
AcDbXrecord
280
     1
290
     1
  0
XRECORD
  5
583
102
{ACAD_REACTORS
330
582
102
}
330
582
100
AcDbXrecord
280
     1
290
     1
  0
XRECORD
  5
585
102
{ACAD_REACTORS
330
584
102
}
330
584
100
AcDbXrecord
280
     1
290
     1
  0
XRECORD
  5
587
102
{ACAD_REACTORS
330
586
102
}
330
586
100
AcDbXrecord
280
     1
290
     1
  0
XRECORD
  5
589
102
{ACAD_REACTORS
330
588
102
}
330
588
100
AcDbXrecord
280
     1
290
     1
  0
XRECORD
  5
58B
102
{ACAD_REACTORS
330
58A
102
}
330
58A
100
AcDbXrecord
280
     1
290
     1
  0
XRECORD
  5
58D
102
{ACAD_REACTORS
330
58C
102
}
330
58C
100
AcDbXrecord
280
     1
290
     1
  0
XRECORD
  5
58F
102
{ACAD_REACTORS
330
58E
102
}
330
58E
100
AcDbXrecord
280
     1
290
     1
  0
XRECORD
  5
591
102
{ACAD_REACTORS
330
590
102
}
330
590
100
AcDbXrecord
280
     1
290
     1
  0
XRECORD
  5
593
102
{ACAD_REACTORS
330
592
102
}
330
592
100
AcDbXrecord
280
     1
290
     1
  0
XRECORD
  5
595
102
{ACAD_REACTORS
330
594
102
}
330
594
100
AcDbXrecord
280
     1
290
     1
  0
XRECORD
  5
597
102
{ACAD_REACTORS
330
596
102
}
330
596
100
AcDbXrecord
280
     1
290
     1
  0
XRECORD
  5
599
102
{ACAD_REACTORS
330
598
102
}
330
598
100
AcDbXrecord
280
     1
290
     1
  0
XRECORD
  5
59B
102
{ACAD_REACTORS
330
59A
102
}
330
59A
100
AcDbXrecord
280
     1
290
     1
  0
XRECORD
  5
59D
102
{ACAD_REACTORS
330
59C
102
}
330
59C
100
AcDbXrecord
280
     1
290
     1
  0
XRECORD
  5
59F
102
{ACAD_REACTORS
330
59E
102
}
330
59E
100
AcDbXrecord
280
     1
290
     1
  0
XRECORD
  5
5A1
102
{ACAD_REACTORS
330
5A0
102
}
330
5A0
100
AcDbXrecord
280
     1
290
     1
  0
XRECORD
  5
5A3
102
{ACAD_REACTORS
330
5A2
102
}
330
5A2
100
AcDbXrecord
280
     1
290
     1
  0
XRECORD
  5
5A5
102
{ACAD_REACTORS
330
5A4
102
}
330
5A4
100
AcDbXrecord
280
     1
290
     1
  0
XRECORD
  5
5A7
102
{ACAD_REACTORS
330
5A6
102
}
330
5A6
100
AcDbXrecord
280
     1
290
     1
  0
XRECORD
  5
5A9
102
{ACAD_REACTORS
330
5A8
102
}
330
5A8
100
AcDbXrecord
280
     1
290
     1
  0
XRECORD
  5
5AB
102
{ACAD_REACTORS
330
5AA
102
}
330
5AA
100
AcDbXrecord
280
     1
290
     1
  0
XRECORD
  5
5AD
102
{ACAD_REACTORS
330
5AC
102
}
330
5AC
100
AcDbXrecord
280
     1
290
     1
  0
XRECORD
  5
5AF
102
{ACAD_REACTORS
330
5AE
102
}
330
5AE
100
AcDbXrecord
280
     1
290
     1
  0
XRECORD
  5
5B1
102
{ACAD_REACTORS
330
5B0
102
}
330
5B0
100
AcDbXrecord
280
     1
290
     1
  0
XRECORD
  5
5B3
102
{ACAD_REACTORS
330
5B2
102
}
330
5B2
100
AcDbXrecord
280
     1
290
     1
  0
XRECORD
  5
5B5
102
{ACAD_REACTORS
330
5B4
102
}
330
5B4
100
AcDbXrecord
280
     1
290
     1
  0
XRECORD
  5
5B7
102
{ACAD_REACTORS
330
5B6
102
}
330
5B6
100
AcDbXrecord
280
     1
290
     1
  0
XRECORD
  5
5B9
102
{ACAD_REACTORS
330
5B8
102
}
330
5B8
100
AcDbXrecord
280
     1
290
     1
  0
XRECORD
  5
5BB
102
{ACAD_REACTORS
330
5BA
102
}
330
5BA
100
AcDbXrecord
280
     1
290
     1
  0
XRECORD
  5
5BD
102
{ACAD_REACTORS
330
5BC
102
}
330
5BC
100
AcDbXrecord
280
     1
290
     1
  0
XRECORD
  5
5BF
102
{ACAD_REACTORS
330
5BE
102
}
330
5BE
100
AcDbXrecord
280
     1
290
     1
  0
XRECORD
  5
5C1
102
{ACAD_REACTORS
330
5C0
102
}
330
5C0
100
AcDbXrecord
280
     1
290
     1
  0
XRECORD
  5
5C3
102
{ACAD_REACTORS
330
5C2
102
}
330
5C2
100
AcDbXrecord
280
     1
290
     1
  0
XRECORD
  5
5C5
102
{ACAD_REACTORS
330
5C4
102
}
330
5C4
100
AcDbXrecord
280
     1
290
     1
  0
XRECORD
  5
5C7
102
{ACAD_REACTORS
330
5C6
102
}
330
5C6
100
AcDbXrecord
280
     1
290
     1
  0
XRECORD
  5
5C9
102
{ACAD_REACTORS
330
5C8
102
}
330
5C8
100
AcDbXrecord
280
     1
290
     1
  0
XRECORD
  5
5CB
102
{ACAD_REACTORS
330
5CA
102
}
330
5CA
100
AcDbXrecord
280
     1
290
     1
  0
XRECORD
  5
5CD
102
{ACAD_REACTORS
330
5CC
102
}
330
5CC
100
AcDbXrecord
280
     1
290
     1
  0
XRECORD
  5
5CF
102
{ACAD_REACTORS
330
5CE
102
}
330
5CE
100
AcDbXrecord
280
     1
290
     1
  0
XRECORD
  5
5D1
102
{ACAD_REACTORS
330
5D0
102
}
330
5D0
100
AcDbXrecord
280
     1
290
     1
  0
XRECORD
  5
5D3
102
{ACAD_REACTORS
330
5D2
102
}
330
5D2
100
AcDbXrecord
280
     1
290
     1
  0
XRECORD
  5
5D5
102
{ACAD_REACTORS
330
5D4
102
}
330
5D4
100
AcDbXrecord
280
     1
290
     1
  0
XRECORD
  5
5D7
102
{ACAD_REACTORS
330
5D6
102
}
330
5D6
100
AcDbXrecord
280
     1
290
     1
  0
XRECORD
  5
5D9
102
{ACAD_REACTORS
330
5D8
102
}
330
5D8
100
AcDbXrecord
280
     1
290
     1
  0
XRECORD
  5
5DB
102
{ACAD_REACTORS
330
5DA
102
}
330
5DA
100
AcDbXrecord
280
     1
290
     1
  0
XRECORD
  5
5DD
102
{ACAD_REACTORS
330
5DC
102
}
330
5DC
100
AcDbXrecord
280
     1
290
     1
  0
XRECORD
  5
5DF
102
{ACAD_REACTORS
330
5DE
102
}
330
5DE
100
AcDbXrecord
280
     1
290
     1
  0
XRECORD
  5
5E1
102
{ACAD_REACTORS
330
5E0
102
}
330
5E0
100
AcDbXrecord
280
     1
290
     1
  0
XRECORD
  5
5E3
102
{ACAD_REACTORS
330
5E2
102
}
330
5E2
100
AcDbXrecord
280
     1
290
     1
  0
XRECORD
  5
5E5
102
{ACAD_REACTORS
330
5E4
102
}
330
5E4
100
AcDbXrecord
280
     1
290
     1
  0
XRECORD
  5
5E7
102
{ACAD_REACTORS
330
5E6
102
}
330
5E6
100
AcDbXrecord
280
     1
290
     1
  0
XRECORD
  5
5E9
102
{ACAD_REACTORS
330
5E8
102
}
330
5E8
100
AcDbXrecord
280
     1
290
     1
  0
XRECORD
  5
5EB
102
{ACAD_REACTORS
330
5EA
102
}
330
5EA
100
AcDbXrecord
280
     1
290
     1
  0
XRECORD
  5
5ED
102
{ACAD_REACTORS
330
5EC
102
}
330
5EC
100
AcDbXrecord
280
     1
290
     1
  0
XRECORD
  5
5EF
102
{ACAD_REACTORS
330
5EE
102
}
330
5EE
100
AcDbXrecord
280
     1
290
     1
  0
XRECORD
  5
5F1
102
{ACAD_REACTORS
330
5F0
102
}
330
5F0
100
AcDbXrecord
280
     1
290
     1
  0
XRECORD
  5
5F3
102
{ACAD_REACTORS
330
5F2
102
}
330
5F2
100
AcDbXrecord
280
     1
290
     1
  0
XRECORD
  5
5F5
102
{ACAD_REACTORS
330
5F4
102
}
330
5F4
100
AcDbXrecord
280
     1
290
     1
  0
XRECORD
  5
5F7
102
{ACAD_REACTORS
330
5F6
102
}
330
5F6
100
AcDbXrecord
280
     1
290
     1
  0
XRECORD
  5
5F9
102
{ACAD_REACTORS
330
5F8
102
}
330
5F8
100
AcDbXrecord
280
     1
290
     1
  0
XRECORD
  5
5FB
102
{ACAD_REACTORS
330
5FA
102
}
330
5FA
100
AcDbXrecord
280
     1
290
     1
  0
XRECORD
  5
5FD
102
{ACAD_REACTORS
330
5FC
102
}
330
5FC
100
AcDbXrecord
280
     1
290
     1
  0
XRECORD
  5
5FF
102
{ACAD_REACTORS
330
5FE
102
}
330
5FE
100
AcDbXrecord
280
     1
290
     1
  0
XRECORD
  5
601
102
{ACAD_REACTORS
330
600
102
}
330
600
100
AcDbXrecord
280
     1
290
     1
  0
XRECORD
  5
603
102
{ACAD_REACTORS
330
602
102
}
330
602
100
AcDbXrecord
280
     1
290
     1
  0
XRECORD
  5
605
102
{ACAD_REACTORS
330
604
102
}
330
604
100
AcDbXrecord
280
     1
290
     1
  0
XRECORD
  5
607
102
{ACAD_REACTORS
330
606
102
}
330
606
100
AcDbXrecord
280
     1
290
     1
  0
XRECORD
  5
609
102
{ACAD_REACTORS
330
608
102
}
330
608
100
AcDbXrecord
280
     1
290
     1
  0
XRECORD
  5
60B
102
{ACAD_REACTORS
330
60A
102
}
330
60A
100
AcDbXrecord
280
     1
290
     1
  0
XRECORD
  5
60D
102
{ACAD_REACTORS
330
60C
102
}
330
60C
100
AcDbXrecord
280
     1
290
     1
  0
XRECORD
  5
60F
102
{ACAD_REACTORS
330
60E
102
}
330
60E
100
AcDbXrecord
280
     1
290
     1
  0
XRECORD
  5
611
102
{ACAD_REACTORS
330
610
102
}
330
610
100
AcDbXrecord
280
     1
290
     1
  0
XRECORD
  5
613
102
{ACAD_REACTORS
330
612
102
}
330
612
100
AcDbXrecord
280
     1
290
     1
  0
XRECORD
  5
615
102
{ACAD_REACTORS
330
614
102
}
330
614
100
AcDbXrecord
280
     1
290
     1
  0
XRECORD
  5
617
102
{ACAD_REACTORS
330
616
102
}
330
616
100
AcDbXrecord
280
     1
290
     1
  0
XRECORD
  5
619
102
{ACAD_REACTORS
330
618
102
}
330
618
100
AcDbXrecord
280
     1
290
     1
  0
XRECORD
  5
61B
102
{ACAD_REACTORS
330
61A
102
}
330
61A
100
AcDbXrecord
280
     1
290
     1
  0
XRECORD
  5
61D
102
{ACAD_REACTORS
330
61C
102
}
330
61C
100
AcDbXrecord
280
     1
290
     1
  0
XRECORD
  5
61F
102
{ACAD_REACTORS
330
61E
102
}
330
61E
100
AcDbXrecord
280
     1
290
     1
  0
XRECORD
  5
621
102
{ACAD_REACTORS
330
620
102
}
330
620
100
AcDbXrecord
280
     1
290
     1
  0
XRECORD
  5
623
102
{ACAD_REACTORS
330
622
102
}
330
622
100
AcDbXrecord
280
     1
290
     1
  0
XRECORD
  5
625
102
{ACAD_REACTORS
330
624
102
}
330
624
100
AcDbXrecord
280
     1
290
     1
  0
XRECORD
  5
627
102
{ACAD_REACTORS
330
626
102
}
330
626
100
AcDbXrecord
280
     1
290
     1
  0
XRECORD
  5
629
102
{ACAD_REACTORS
330
628
102
}
330
628
100
AcDbXrecord
280
     1
290
     1
  0
XRECORD
  5
62B
102
{ACAD_REACTORS
330
62A
102
}
330
62A
100
AcDbXrecord
280
     1
290
     1
  0
XRECORD
  5
62D
102
{ACAD_REACTORS
330
62C
102
}
330
62C
100
AcDbXrecord
280
     1
290
     1
  0
XRECORD
  5
62F
102
{ACAD_REACTORS
330
62E
102
}
330
62E
100
AcDbXrecord
280
     1
290
     1
  0
XRECORD
  5
631
102
{ACAD_REACTORS
330
630
102
}
330
630
100
AcDbXrecord
280
     1
290
     1
  0
XRECORD
  5
633
102
{ACAD_REACTORS
330
632
102
}
330
632
100
AcDbXrecord
280
     1
290
     1
  0
XRECORD
  5
635
102
{ACAD_REACTORS
330
634
102
}
330
634
100
AcDbXrecord
280
     1
290
     1
  0
XRECORD
  5
637
102
{ACAD_REACTORS
330
636
102
}
330
636
100
AcDbXrecord
280
     1
290
     1
  0
XRECORD
  5
639
102
{ACAD_REACTORS
330
638
102
}
330
638
100
AcDbXrecord
280
     1
290
     1
  0
XRECORD
  5
63B
102
{ACAD_REACTORS
330
63A
102
}
330
63A
100
AcDbXrecord
280
     1
290
     1
  0
XRECORD
  5
63D
102
{ACAD_REACTORS
330
63C
102
}
330
63C
100
AcDbXrecord
280
     1
290
     1
  0
XRECORD
  5
63F
102
{ACAD_REACTORS
330
63E
102
}
330
63E
100
AcDbXrecord
280
     1
290
     1
  0
XRECORD
  5
641
102
{ACAD_REACTORS
330
640
102
}
330
640
100
AcDbXrecord
280
     1
290
     1
  0
XRECORD
  5
643
102
{ACAD_REACTORS
330
642
102
}
330
642
100
AcDbXrecord
280
     1
290
     1
  0
XRECORD
  5
645
102
{ACAD_REACTORS
330
644
102
}
330
644
100
AcDbXrecord
280
     1
290
     1
  0
XRECORD
  5
647
102
{ACAD_REACTORS
330
646
102
}
330
646
100
AcDbXrecord
280
     1
290
     1
  0
XRECORD
  5
649
102
{ACAD_REACTORS
330
648
102
}
330
648
100
AcDbXrecord
280
     1
290
     1
  0
XRECORD
  5
64B
102
{ACAD_REACTORS
330
64A
102
}
330
64A
100
AcDbXrecord
280
     1
290
     1
  0
XRECORD
  5
64D
102
{ACAD_REACTORS
330
64C
102
}
330
64C
100
AcDbXrecord
280
     1
290
     1
  0
XRECORD
  5
64F
102
{ACAD_REACTORS
330
64E
102
}
330
64E
100
AcDbXrecord
280
     1
290
     1
  0
XRECORD
  5
651
102
{ACAD_REACTORS
330
650
102
}
330
650
100
AcDbXrecord
280
     1
290
     1
  0
XRECORD
  5
653
102
{ACAD_REACTORS
330
652
102
}
330
652
100
AcDbXrecord
280
     1
290
     1
  0
XRECORD
  5
655
102
{ACAD_REACTORS
330
654
102
}
330
654
100
AcDbXrecord
280
     1
290
     1
  0
XRECORD
  5
657
102
{ACAD_REACTORS
330
656
102
}
330
656
100
AcDbXrecord
280
     1
290
     1
  0
XRECORD
  5
659
102
{ACAD_REACTORS
330
658
102
}
330
658
100
AcDbXrecord
280
     1
290
     1
  0
XRECORD
  5
65B
102
{ACAD_REACTORS
330
65A
102
}
330
65A
100
AcDbXrecord
280
     1
290
     1
  0
XRECORD
  5
65D
102
{ACAD_REACTORS
330
65C
102
}
330
65C
100
AcDbXrecord
280
     1
290
     1
  0
XRECORD
  5
65F
102
{ACAD_REACTORS
330
65E
102
}
330
65E
100
AcDbXrecord
280
     1
290
     1
  0
XRECORD
  5
661
102
{ACAD_REACTORS
330
660
102
}
330
660
100
AcDbXrecord
280
     1
290
     1
  0
XRECORD
  5
663
102
{ACAD_REACTORS
330
662
102
}
330
662
100
AcDbXrecord
280
     1
290
     1
  0
XRECORD
  5
665
102
{ACAD_REACTORS
330
664
102
}
330
664
100
AcDbXrecord
280
     1
290
     1
  0
XRECORD
  5
667
102
{ACAD_REACTORS
330
666
102
}
330
666
100
AcDbXrecord
280
     1
290
     1
  0
LAYOUT
  5
21
102
{ACAD_XDICTIONARY
360
67C
102
}
102
{ACAD_REACTORS
330
19
102
}
330
19
100
AcDbPlotSettings
  1

  2
\\LKFPBV\BV016
  4

  6

 40
0.0
 41
0.0
 42
0.0
 43
0.0
 44
0.0
 45
0.0
 46
0.0
 47
0.0
 48
0.0
 49
0.0
140
0.0
141
0.0
142
1.0
143
1.0
 70
   688
 72
     0
 73
     0
 74
     5
  7

 75
    16
147
1.0
148
0.0
149
0.0
100
AcDbLayout
  1
Layout1
 70
     1
 71
     1
 10
0.0
 20
0.0
 11
12.0
 21
9.0
 12
0.0
 22
0.0
 32
0.0
 14
1.000000000000000E+20
 24
1.000000000000000E+20
 34
1.000000000000000E+20
 15
-1.000000000000000E+20
 25
-1.000000000000000E+20
 35
-1.000000000000000E+20
146
0.0
 13
0.0
 23
0.0
 33
0.0
 16
1.0
 26
0.0
 36
0.0
 17
0.0
 27
1.0
 37
0.0
 76
     0
330
1E
  0
LAYOUT
  5
25
102
{ACAD_XDICTIONARY
360
67E
102
}
102
{ACAD_REACTORS
330
19
102
}
330
19
100
AcDbPlotSettings
  1

  2
none_device
  4
Letter_(8.50_x_11.00_Inches)
  6

 40
6.349999904632568
 41
6.349999904632568
 42
6.350006103515625
 43
6.350006103515625
 44
215.8999938964844
 45
279.3999938964844
 46
0.0
 47
0.0
 48
0.0
 49
0.0
140
0.0
141
0.0
142
1.0
143
4.141400691471833
 70
 11952
 72
     0
 73
     1
 74
     0
  7

 75
     0
147
0.2414641988299386
148
107.7990419407301
149
-10.39104422385614
100
AcDbLayout
  1
Model
 70
     1
 71
     0
 10
0.0
 20
0.0
 11
12.0
 21
9.0
 12
0.0
 22
0.0
 32
0.0
 14
0.0
 24
0.0
 34
0.0
 15
0.0
 25
0.0
 35
0.0
146
0.0
 13
0.0
 23
0.0
 33
0.0
 16
1.0
 26
0.0
 36
0.0
 17
0.0
 27
1.0
 37
0.0
 76
     0
330
22
331
404
1001
ACAD_PSEXT
1000
None
1000
None
1000
Not applicable
1000
The layout will not be plotted unless a new plotter configuration name is selected.
1070
     0
  0
MATERIAL
  5
415
102
{ACAD_XDICTIONARY
360
416
102
}
102
{ACAD_REACTORS
330
1A
102
}
330
1A
100
AcDbMaterial
  1
ByBlock
 72
     0
 43
0.0208333333333333
 43
0.0
 43
0.0
 43
0.0
 43
0.0
 43
0.0208333333333333
 43
0.0
 43
0.0
 43
0.0
 43
0.0
 43
1.0
 43
0.0
 43
0.0
 43
0.0
 43
0.0
 43
1.0
 77
     0
 47
0.0208333333333333
 47
0.0
 47
0.0
 47
0.0
 47
0.0
 47
0.0208333333333333
 47
0.0
 47
0.0
 47
0.0
 47
0.0
 47
1.0
 47
0.0
 47
0.0
 47
0.0
 47
0.0
 47
1.0
171
     0
 49
0.0208333333333333
 49
0.0
 49
0.0
 49
0.0
 49
0.0
 49
0.0208333333333333
 49
0.0
 49
0.0
 49
0.0
 49
0.0
 49
1.0
 49
0.0
 49
0.0
 49
0.0
 49
0.0
 49
1.0
175
     0
142
0.0208333333333333
142
0.0
142
0.0
142
0.0
142
0.0
142
0.0208333333333333
142
0.0
142
0.0
142
0.0
142
0.0
142
1.0
142
0.0
142
0.0
142
0.0
142
0.0
142
1.0
179
     0
144
0.0208333333333333
144
0.0
144
0.0
144
0.0
144
0.0
144
0.0208333333333333
144
0.0
144
0.0
144
0.0
144
0.0
144
1.0
144
0.0
144
0.0
144
0.0
144
0.0
144
1.0
147
0.0208333333333333
147
0.0
147
0.0
147
0.0
147
0.0
147
0.0208333333333333
147
0.0
147
0.0
147
0.0
147
0.0
147
1.0
147
0.0
147
0.0
147
0.0
147
0.0
147
1.0
  0
MATERIAL
  5
40D
102
{ACAD_XDICTIONARY
360
40E
102
}
102
{ACAD_REACTORS
330
1A
102
}
330
1A
100
AcDbMaterial
  1
ByLayer
 72
     0
 43
0.0208333333333333
 43
0.0
 43
0.0
 43
0.0
 43
0.0
 43
0.0208333333333333
 43
0.0
 43
0.0
 43
0.0
 43
0.0
 43
1.0
 43
0.0
 43
0.0
 43
0.0
 43
0.0
 43
1.0
 77
     0
 47
0.0208333333333333
 47
0.0
 47
0.0
 47
0.0
 47
0.0
 47
0.0208333333333333
 47
0.0
 47
0.0
 47
0.0
 47
0.0
 47
1.0
 47
0.0
 47
0.0
 47
0.0
 47
0.0
 47
1.0
171
     0
 49
0.0208333333333333
 49
0.0
 49
0.0
 49
0.0
 49
0.0
 49
0.0208333333333333
 49
0.0
 49
0.0
 49
0.0
 49
0.0
 49
1.0
 49
0.0
 49
0.0
 49
0.0
 49
0.0
 49
1.0
175
     0
142
0.0208333333333333
142
0.0
142
0.0
142
0.0
142
0.0
142
0.0208333333333333
142
0.0
142
0.0
142
0.0
142
0.0
142
1.0
142
0.0
142
0.0
142
0.0
142
0.0
142
1.0
179
     0
144
0.0208333333333333
144
0.0
144
0.0
144
0.0
144
0.0
144
0.0208333333333333
144
0.0
144
0.0
144
0.0
144
0.0
144
1.0
144
0.0
144
0.0
144
0.0
144
0.0
144
1.0
147
0.0208333333333333
147
0.0
147
0.0
147
0.0
147
0.0
147
0.0208333333333333
147
0.0
147
0.0
147
0.0
147
0.0
147
1.0
147
0.0
147
0.0
147
0.0
147
0.0
147
1.0
  0
MATERIAL
  5
41D
102
{ACAD_XDICTIONARY
360
41E
102
}
102
{ACAD_REACTORS
330
1A
102
}
330
1A
100
AcDbMaterial
  1
Global
 72
     0
 43
0.0208333333333333
 43
0.0
 43
0.0
 43
0.0
 43
0.0
 43
0.0208333333333333
 43
0.0
 43
0.0
 43
0.0
 43
0.0
 43
1.0
 43
0.0
 43
0.0
 43
0.0
 43
0.0
 43
1.0
 77
     0
 47
0.0208333333333333
 47
0.0
 47
0.0
 47
0.0
 47
0.0
 47
0.0208333333333333
 47
0.0
 47
0.0
 47
0.0
 47
0.0
 47
1.0
 47
0.0
 47
0.0
 47
0.0
 47
0.0
 47
1.0
171
     0
 49
0.0208333333333333
 49
0.0
 49
0.0
 49
0.0
 49
0.0
 49
0.0208333333333333
 49
0.0
 49
0.0
 49
0.0
 49
0.0
 49
1.0
 49
0.0
 49
0.0
 49
0.0
 49
0.0
 49
1.0
175
     0
142
0.0208333333333333
142
0.0
142
0.0
142
0.0
142
0.0
142
0.0208333333333333
142
0.0
142
0.0
142
0.0
142
0.0
142
1.0
142
0.0
142
0.0
142
0.0
142
0.0
142
1.0
179
     0
144
0.0208333333333333
144
0.0
144
0.0
144
0.0
144
0.0
144
0.0208333333333333
144
0.0
144
0.0
144
0.0
144
0.0
144
1.0
144
0.0
144
0.0
144
0.0
144
0.0
144
1.0
147
0.0208333333333333
147
0.0
147
0.0
147
0.0
147
0.0
147
0.0208333333333333
147
0.0
147
0.0
147
0.0
147
0.0
147
1.0
147
0.0
147
0.0
147
0.0
147
0.0
147
1.0
  0
MLEADERSTYLE
  5
45C
102
{ACAD_REACTORS
330
45B
102
}
330
45B
100
AcDbMLeaderStyle
170
     2
171
     1
172
     0
 90
        2
 40
0.0
 41
0.0
173
     1
 91
-1056964608
340
13
 92
       -2
290
     1
 42
0.09
291
     1
 43
0.36
  3
Standard
 44
0.18
300

342
11
174
     1
178
     6
175
     1
176
     0
 93
-1056964608
 45
0.18
292
     0
297
     0
 46
0.18
 94
-1056964608
 47
1.0
 49
1.0
140
1.0
293
     1
141
0.0
294
     1
177
     0
142
1.0
295
     0
296
     0
143
0.125
1001
ACAD_MLEADERVER
1070
     2
  0
MLINESTYLE
  5
17
102
{ACAD_REACTORS
330
16
102
}
330
16
100
AcDbMlineStyle
  2
STANDARD
 70
     0
  3

 62
   256
 51
90.0
 52
90.0
 71
     2
 49
0.5
 62
   256
  6
BYLAYER
 49
-0.5
 62
   256
  6
BYLAYER
  0
ACDBPLACEHOLDER
  5
F
102
{ACAD_REACTORS
330
E
102
}
330
E
  0
SCALE
  5
43A
102
{ACAD_REACTORS
330
439
102
}
330
439
100
AcDbScale
 70
     0
300
1:1
140
1.0
141
1.0
290
     1
  0
SCALE
  5
43B
102
{ACAD_REACTORS
330
439
102
}
330
439
100
AcDbScale
 70
     0
300
1:2
140
1.0
141
2.0
290
     0
  0
SCALE
  5
43C
102
{ACAD_REACTORS
330
439
102
}
330
439
100
AcDbScale
 70
     0
300
1:4
140
1.0
141
4.0
290
     0
  0
SCALE
  5
43D
102
{ACAD_REACTORS
330
439
102
}
330
439
100
AcDbScale
 70
     0
300
1:5
140
1.0
141
5.0
290
     0
  0
SCALE
  5
43E
102
{ACAD_REACTORS
330
439
102
}
330
439
100
AcDbScale
 70
     0
300
1:8
140
1.0
141
8.0
290
     0
  0
SCALE
  5
43F
102
{ACAD_REACTORS
330
439
102
}
330
439
100
AcDbScale
 70
     0
300
1:10
140
1.0
141
10.0
290
     0
  0
SCALE
  5
440
102
{ACAD_REACTORS
330
439
102
}
330
439
100
AcDbScale
 70
     0
300
1:16
140
1.0
141
16.0
290
     0
  0
SCALE
  5
441
102
{ACAD_REACTORS
330
439
102
}
330
439
100
AcDbScale
 70
     0
300
1:20
140
1.0
141
20.0
290
     0
  0
SCALE
  5
442
102
{ACAD_REACTORS
330
439
102
}
330
439
100
AcDbScale
 70
     0
300
1:30
140
1.0
141
30.0
290
     0
  0
SCALE
  5
443
102
{ACAD_REACTORS
330
439
102
}
330
439
100
AcDbScale
 70
     0
300
1:40
140
1.0
141
40.0
290
     0
  0
SCALE
  5
444
102
{ACAD_REACTORS
330
439
102
}
330
439
100
AcDbScale
 70
     0
300
1:50
140
1.0
141
50.0
290
     0
  0
SCALE
  5
445
102
{ACAD_REACTORS
330
439
102
}
330
439
100
AcDbScale
 70
     0
300
1:100
140
1.0
141
100.0
290
     0
  0
SCALE
  5
446
102
{ACAD_REACTORS
330
439
102
}
330
439
100
AcDbScale
 70
     0
300
2:1
140
2.0
141
1.0
290
     0
  0
SCALE
  5
447
102
{ACAD_REACTORS
330
439
102
}
330
439
100
AcDbScale
 70
     0
300
4:1
140
4.0
141
1.0
290
     0
  0
SCALE
  5
448
102
{ACAD_REACTORS
330
439
102
}
330
439
100
AcDbScale
 70
     0
300
8:1
140
8.0
141
1.0
290
     0
  0
SCALE
  5
449
102
{ACAD_REACTORS
330
439
102
}
330
439
100
AcDbScale
 70
     0
300
10:1
140
10.0
141
1.0
290
     0
  0
SCALE
  5
44A
102
{ACAD_REACTORS
330
439
102
}
330
439
100
AcDbScale
 70
     0
300
100:1
140
100.0
141
1.0
290
     0
  0
SCALE
  5
44B
102
{ACAD_REACTORS
330
439
102
}
330
439
100
AcDbScale
 70
     0
300
1/128" = 1'-0"
140
0.0078125
141
12.0
290
     0
  0
SCALE
  5
44C
102
{ACAD_REACTORS
330
439
102
}
330
439
100
AcDbScale
 70
     0
300
1/64" = 1'-0"
140
0.015625
141
12.0
290
     0
  0
SCALE
  5
44D
102
{ACAD_REACTORS
330
439
102
}
330
439
100
AcDbScale
 70
     0
300
1/32" = 1'-0"
140
0.03125
141
12.0
290
     0
  0
SCALE
  5
44E
102
{ACAD_REACTORS
330
439
102
}
330
439
100
AcDbScale
 70
     0
300
1/16" = 1'-0"
140
0.0625
141
12.0
290
     0
  0
SCALE
  5
44F
102
{ACAD_REACTORS
330
439
102
}
330
439
100
AcDbScale
 70
     0
300
3/32" = 1'-0"
140
0.09375
141
12.0
290
     0
  0
SCALE
  5
450
102
{ACAD_REACTORS
330
439
102
}
330
439
100
AcDbScale
 70
     0
300
1/8" = 1'-0"
140
0.125
141
12.0
290
     0
  0
SCALE
  5
451
102
{ACAD_REACTORS
330
439
102
}
330
439
100
AcDbScale
 70
     0
300
3/16" = 1'-0"
140
0.1875
141
12.0
290
     0
  0
SCALE
  5
452
102
{ACAD_REACTORS
330
439
102
}
330
439
100
AcDbScale
 70
     0
300
1/4" = 1'-0"
140
0.25
141
12.0
290
     0
  0
SCALE
  5
453
102
{ACAD_REACTORS
330
439
102
}
330
439
100
AcDbScale
 70
     0
300
3/8" = 1'-0"
140
0.375
141
12.0
290
     0
  0
SCALE
  5
454
102
{ACAD_REACTORS
330
439
102
}
330
439
100
AcDbScale
 70
     0
300
1/2" = 1'-0"
140
0.5
141
12.0
290
     0
  0
SCALE
  5
455
102
{ACAD_REACTORS
330
439
102
}
330
439
100
AcDbScale
 70
     0
300
3/4" = 1'-0"
140
0.75
141
12.0
290
     0
  0
SCALE
  5
456
102
{ACAD_REACTORS
330
439
102
}
330
439
100
AcDbScale
 70
     0
300
1" = 1'-0"
140
1.0
141
12.0
290
     0
  0
SCALE
  5
457
102
{ACAD_REACTORS
330
439
102
}
330
439
100
AcDbScale
 70
     0
300
1-1/2" = 1'-0"
140
1.5
141
12.0
290
     0
  0
SCALE
  5
458
102
{ACAD_REACTORS
330
439
102
}
330
439
100
AcDbScale
 70
     0
300
3" = 1'-0"
140
3.0
141
12.0
290
     0
  0
SCALE
  5
459
102
{ACAD_REACTORS
330
439
102
}
330
439
100
AcDbScale
 70
     0
300
6" = 1'-0"
140
6.0
141
12.0
290
     0
  0
SCALE
  5
45A
102
{ACAD_REACTORS
330
439
102
}
330
439
100
AcDbScale
 70
     0
300
1'-0" = 1'-0"
140
12.0
141
12.0
290
     0
  0
TABLESTYLE
  5
1D
102
{ACAD_XDICTIONARY
360
677
102
}
102
{ACAD_REACTORS
330
1C
102
}
330
1C
100
AcDbTableStyle
  3
Standard
 70
     0
 71
     0
 40
0.06
 41
0.06
280
     0
281
     0
  7
STANDARD
140
0.18
170
     2
 62
     0
 63
     7
283
     0
274
    -2
284
     1
 64
     0
275
    -2
285
     1
 65
     0
276
    -2
286
     1
 66
     0
277
    -2
287
     1
 67
     0
278
    -2
288
     1
 68
     0
279
    -2
289
     1
 69
     0
  7
STANDARD
140
0.25
170
     5
 62
     0
 63
     7
283
     0
274
    -2
284
     1
 64
     0
275
    -2
285
     1
 65
     0
276
    -2
286
     1
 66
     0
277
    -2
287
     1
 67
     0
278
    -2
288
     1
 68
     0
279
    -2
289
     1
 69
     0
  7
STANDARD
140
0.18
170
     5
 62
     0
 63
     7
283
     0
274
    -2
284
     1
 64
     0
275
    -2
285
     1
 65
     0
276
    -2
286
     1
 66
     0
277
    -2
287
     1
 67
     0
278
    -2
288
     1
 68
     0
279
    -2
289
     1
 69
     0
  0
VISUALSTYLE
  5
42B
102
{ACAD_XDICTIONARY
360
68D
102
}
102
{ACAD_REACTORS
330
425
102
}
330
425
100
AcDbVisualStyle
  2
2dWireframe
 70
     4
 71
     0
 72
     2
 73
     0
 90
        0
 40
-0.6
 41
-30.0
 62
     5
 63
     7
 74
     1
 91
        4
 64
     7
 65
   257
 75
     1
175
     1
 42
1.0
 92
        0
 66
   257
 43
1.0
 76
     1
 77
     6
 78
     2
 67
     7
 79
     5
170
     0
171
     0
290
     0
174
     0
 93
        1
 44
0.0
173
     0
291
     0
 45
0.0
1001
ACAD
1000
AcDbSavedByObjectVersion
1070
     0
  0
VISUALSTYLE
  5
42D
102
{ACAD_XDICTIONARY
360
691
102
}
102
{ACAD_REACTORS
330
425
102
}
330
425
100
AcDbVisualStyle
  2
3D Hidden
 70
     6
 71
     1
 72
     2
 73
     2
 90
        0
 40
-0.6
 41
-30.0
 62
     5
 63
     7
 74
     2
 91
        2
 64
     7
 65
   257
 75
     2
175
     1
 42
179.0
 92
        0
 66
   257
 43
1.0
 76
     1
 77
     6
 78
     2
 67
     7
 79
     3
170
     0
171
     0
290
     0
174
     0
 93
        1
 44
0.0
173
     0
291
     0
 45
0.0
1001
ACAD
1000
AcDbSavedByObjectVersion
1070
     0
  0
VISUALSTYLE
  5
42C
102
{ACAD_XDICTIONARY
360
68F
102
}
102
{ACAD_REACTORS
330
425
102
}
330
425
100
AcDbVisualStyle
  2
3dWireframe
 70
     5
 71
     0
 72
     2
 73
     0
 90
        0
 40
-0.6
 41
-30.0
 62
     5
 63
     7
 74
     1
 91
        4
 64
     7
 65
   257
 75
     1
175
     1
 42
1.0
 92
        0
 66
   257
 43
1.0
 76
     1
 77
     6
 78
     2
 67
     7
 79
     5
170
     0
171
     0
290
     0
174
     0
 93
        1
 44
0.0
173
     0
291
     0
 45
0.0
1001
ACAD
1000
AcDbSavedByObjectVersion
1070
     0
  0
VISUALSTYLE
  5
42A
102
{ACAD_XDICTIONARY
360
68B
102
}
102
{ACAD_REACTORS
330
425
102
}
330
425
100
AcDbVisualStyle
  2
Basic
 70
     7
 71
     1
 72
     0
 73
     1
 90
        0
 40
-0.6
 41
-30.0
 62
     5
 63
     7
 74
     0
 91
        4
 64
     7
 65
   257
 75
     1
175
     1
 42
1.0
 92
        8
 66
     7
 43
1.0
 76
     1
 77
     6
 78
     2
 67
     7
 79
     5
170
     0
171
     0
290
     0
174
     0
 93
        1
 44
0.0
173
     0
291
     1
 45
0.0
1001
ACAD
1000
AcDbSavedByObjectVersion
1070
     0
  0
VISUALSTYLE
  5
431
102
{ACAD_XDICTIONARY
360
699
102
}
102
{ACAD_REACTORS
330
425
102
}
330
425
100
AcDbVisualStyle
  2
Brighten
 70
    12
 71
     2
 72
     2
 73
     0
 90
        0
 40
-0.6
 41
-30.0
 62
     5
 63
     7
 74
     1
 91
        4
 64
     7
 65
   257
 75
     1
175
     1
 42
1.0
 92
        8
 66
     7
 43
1.0
 76
     1
 77
     6
 78
     2
 67
     7
 79
     5
170
     0
171
     0
290
     0
174
     0
 93
        1
 44
50.0
173
     0
291
     1
 45
0.0
1001
ACAD
1000
AcDbSavedByObjectVersion
1070
     0
  0
VISUALSTYLE
  5
435
102
{ACAD_XDICTIONARY
360
6A1
102
}
102
{ACAD_REACTORS
330
425
102
}
330
425
100
AcDbVisualStyle
  2
ColorChange
 70
    16
 71
     2
 72
     2
 73
     3
 90
        0
 40
-0.6
 41
-30.0
 62
     5
 63
     8
 74
     1
 91
        4
 64
     7
 65
   257
 75
     1
175
     1
 42
1.0
 92
        8
 66
     8
 43
1.0
 76
     1
 77
     6
 78
     2
 67
     7
 79
     5
170
     0
171
     0
290
     0
174
     0
 93
        1
 44
0.0
173
     0
291
     1
 45
0.0
1001
ACAD
1000
AcDbSavedByObjectVersion
1070
     0
  0
VISUALSTYLE
  5
42E
102
{ACAD_XDICTIONARY
360
693
102
}
102
{ACAD_REACTORS
330
425
102
}
330
425
100
AcDbVisualStyle
  2
Conceptual
 70
     9
 71
     3
 72
     2
 73
     0
 90
        0
 40
-0.6
 41
-30.0
 62
     5
 63
     7
 74
     2
 91
        2
 64
     7
 65
   257
 75
     1
175
     1
 42
179.0
 92
        8
 66
     7
 43
1.0
 76
     1
 77
     6
 78
     2
 67
     7
 79
     3
170
     0
171
     0
290
     0
174
     0
 93
        1
 44
0.0
173
     0
291
     0
 45
0.0
1001
ACAD
1000
AcDbSavedByObjectVersion
1070
     0
  0
VISUALSTYLE
  5
430
102
{ACAD_XDICTIONARY
360
697
102
}
102
{ACAD_REACTORS
330
425
102
}
330
425
100
AcDbVisualStyle
  2
Dim
 70
    11
 71
     2
 72
     2
 73
     0
 90
        0
 40
-0.6
 41
-30.0
 62
     5
 63
     7
 74
     1
 91
        4
 64
     7
 65
   257
 75
     1
175
     1
 42
1.0
 92
        8
 66
     7
 43
1.0
 76
     1
 77
     6
 78
     2
 67
     7
 79
     5
170
     0
171
     0
290
     0
174
     0
 93
        1
 44
-50.0
173
     0
291
     1
 45
0.0
1001
ACAD
1000
AcDbSavedByObjectVersion
1070
     0
  0
VISUALSTYLE
  5
438
102
{ACAD_XDICTIONARY
360
6A7
102
}
102
{ACAD_REACTORS
330
425
102
}
330
425
100
AcDbVisualStyle
  2
EdgeColorOff
 70
    22
 71
     2
 72
     2
 73
     0
 90
        0
 40
-0.6
 41
-30.0
 62
     5
 63
     7
 74
     1
 91
        4
 64
     7
 65
   257
 75
     1
175
     1
 42
1.0
 92
        8
 66
     7
 43
1.0
 76
     1
 77
     6
 78
     2
 67
     7
 79
     5
170
     0
171
     0
290
     0
174
     0
 93
        1
 44
0.0
173
     0
291
     1
 45
0.0
1001
ACAD
1000
AcDbSavedByObjectVersion
1070
     0
  0
VISUALSTYLE
  5
434
102
{ACAD_XDICTIONARY
360
69F
102
}
102
{ACAD_REACTORS
330
425
102
}
330
425
100
AcDbVisualStyle
  2
Facepattern
 70
    15
 71
     2
 72
     2
 73
     0
 90
        0
 40
-0.6
 41
-30.0
 62
     5
 63
     7
 74
     1
 91
        4
 64
     7
 65
   257
 75
     1
175
     1
 42
1.0
 92
        8
 66
     7
 43
1.0
 76
     1
 77
     6
 78
     2
 67
     7
 79
     5
170
     0
171
     0
290
     0
174
     0
 93
        1
 44
0.0
173
     0
291
     1
 45
0.0
1001
ACAD
1000
AcDbSavedByObjectVersion
1070
     0
  0
VISUALSTYLE
  5
426
102
{ACAD_XDICTIONARY
360
683
102
}
102
{ACAD_REACTORS
330
425
102
}
330
425
100
AcDbVisualStyle
  2
Flat
 70
     0
 71
     2
 72
     1
 73
     1
 90
        2
 40
-0.6
 41
30.0
 62
     5
 63
     7
 74
     0
 91
        4
 64
     7
 65
   257
 75
     1
175
     1
 42
1.0
 92
        8
 66
     7
 43
1.0
 76
     1
 77
     6
 78
     2
 67
     7
 79
     5
170
     0
171
     0
290
     0
174
     0
 93
       13
 44
0.0
173
     0
291
     1
 45
0.0
1001
ACAD
1000
AcDbSavedByObjectVersion
1070
     0
  0
VISUALSTYLE
  5
427
102
{ACAD_XDICTIONARY
360
685
102
}
102
{ACAD_REACTORS
330
425
102
}
330
425
100
AcDbVisualStyle
  2
FlatWithEdges
 70
     1
 71
     2
 72
     1
 73
     1
 90
        2
 40
-0.6
 41
30.0
 62
     5
 63
     7
 74
     1
 91
        4
 64
     7
 65
   257
 75
     1
175
     1
 42
1.0
 92
        0
 66
   257
 43
1.0
 76
     1
 77
     6
 78
     2
 67
     7
 79
     5
170
     0
171
     0
290
     0
174
     0
 93
       13
 44
0.0
173
     0
291
     1
 45
0.0
1001
ACAD
1000
AcDbSavedByObjectVersion
1070
     0
  0
VISUALSTYLE
  5
428
102
{ACAD_XDICTIONARY
360
687
102
}
102
{ACAD_REACTORS
330
425
102
}
330
425
100
AcDbVisualStyle
  2
Gouraud
 70
     2
 71
     2
 72
     2
 73
     1
 90
        2
 40
-0.6
 41
30.0
 62
     5
 63
     7
 74
     0
 91
        4
 64
     7
 65
   257
 75
     1
175
     1
 42
1.0
 92
        0
 66
     7
 43
1.0
 76
     1
 77
     6
 78
     2
 67
     7
 79
     5
170
     0
171
     0
290
     0
174
     0
 93
       13
 44
0.0
173
     0
291
     1
 45
0.0
1001
ACAD
1000
AcDbSavedByObjectVersion
1070
     0
  0
VISUALSTYLE
  5
429
102
{ACAD_XDICTIONARY
360
689
102
}
102
{ACAD_REACTORS
330
425
102
}
330
425
100
AcDbVisualStyle
  2
GouraudWithEdges
 70
     3
 71
     2
 72
     2
 73
     1
 90
        2
 40
-0.6
 41
30.0
 62
     5
 63
     7
 74
     1
 91
        4
 64
     7
 65
   257
 75
     1
175
     1
 42
1.0
 92
        0
 66
   257
 43
1.0
 76
     1
 77
     6
 78
     2
 67
     7
 79
     5
170
     0
171
     0
290
     0
174
     0
 93
       13
 44
0.0
173
     0
291
     1
 45
0.0
1001
ACAD
1000
AcDbSavedByObjectVersion
1070
     0
  0
VISUALSTYLE
  5
436
102
{ACAD_XDICTIONARY
360
6A3
102
}
102
{ACAD_REACTORS
330
425
102
}
330
425
100
AcDbVisualStyle
  2
JitterOff
 70
    20
 71
     2
 72
     2
 73
     0
 90
        0
 40
-0.6
 41
-30.0
 62
     5
 63
     7
 74
     1
 91
        4
 64
     7
 65
   257
 75
     1
175
     1
 42
1.0
 92
       10
 66
     7
 43
1.0
 76
     1
 77
     6
 78
     2
 67
     7
 79
     5
170
     0
171
     0
290
     0
174
     0
 93
        1
 44
0.0
173
     0
291
     1
 45
0.0
1001
ACAD
1000
AcDbSavedByObjectVersion
1070
     0
  0
VISUALSTYLE
  5
433
102
{ACAD_XDICTIONARY
360
69D
102
}
102
{ACAD_REACTORS
330
425
102
}
330
425
100
AcDbVisualStyle
  2
Linepattern
 70
    14
 71
     2
 72
     2
 73
     0
 90
        0
 40
-0.6
 41
-30.0
 62
     5
 63
     7
 74
     1
 91
        4
 64
     7
 65
   257
 75
     7
175
     7
 42
1.0
 92
        8
 66
     7
 43
1.0
 76
     1
 77
     6
 78
     2
 67
     7
 79
     5
170
     0
171
     0
290
     0
174
     0
 93
        1
 44
0.0
173
     0
291
     1
 45
0.0
1001
ACAD
1000
AcDbSavedByObjectVersion
1070
     0
  0
VISUALSTYLE
  5
437
102
{ACAD_XDICTIONARY
360
6A5
102
}
102
{ACAD_REACTORS
330
425
102
}
330
425
100
AcDbVisualStyle
  2
OverhangOff
 70
    21
 71
     2
 72
     2
 73
     0
 90
        0
 40
-0.6
 41
-30.0
 62
     5
 63
     7
 74
     1
 91
        4
 64
     7
 65
   257
 75
     1
175
     1
 42
1.0
 92
        9
 66
     7
 43
1.0
 76
     1
 77
     6
 78
     2
 67
     7
 79
     5
170
     0
171
     0
290
     0
174
     0
 93
        1
 44
0.0
173
     0
291
     1
 45
0.0
1001
ACAD
1000
AcDbSavedByObjectVersion
1070
     0
  0
VISUALSTYLE
  5
42F
102
{ACAD_XDICTIONARY
360
695
102
}
102
{ACAD_REACTORS
330
425
102
}
330
425
100
AcDbVisualStyle
  2
Realistic
 70
     8
 71
     2
 72
     2
 73
     0
 90
        0
 40
-0.6
 41
-30.0
 62
     5
 63
     7
 74
     1
 91
        0
 64
     7
 65
   257
 75
     1
175
     1
 42
1.0
 92
        8
 66
     8
 43
1.0
 76
     1
 77
     6
 78
     2
 67
     7
 79
     5
170
     0
171
     0
290
     0
174
     0
 93
       13
 44
0.0
173
     0
291
     0
 45
0.0
1001
ACAD
1000
AcDbSavedByObjectVersion
1070
     0
  0
VISUALSTYLE
  5
432
102
{ACAD_XDICTIONARY
360
69B
102
}
102
{ACAD_REACTORS
330
425
102
}
330
425
100
AcDbVisualStyle
  2
Thicken
 70
    13
 71
     2
 72
     2
 73
     0
 90
        0
 40
-0.6
 41
-30.0
 62
     5
 63
     7
 74
     1
 91
        4
 64
     7
 65
   257
 75
     1
175
     1
 42
1.0
 92
       12
 66
     7
 43
1.0
 76
     1
 77
     6
 78
     2
 67
     7
 79
     5
170
     0
171
     0
290
     0
174
     0
 93
        1
 44
0.0
173
     0
291
     1
 45
0.0
1001
ACAD
1000
AcDbSavedByObjectVersion
1070
     0
  0
DICTIONARYVAR
  5
673
102
{ACAD_REACTORS
330
400
102
}
330
400
100
DictionaryVariables
280
     0
  1
1:1
  0
DICTIONARYVAR
  5
672
102
{ACAD_REACTORS
330
400
102
}
330
400
100
DictionaryVariables
280
     0
  1
STANDARD
  0
DICTIONARYVAR
  5
401
102
{ACAD_REACTORS
330
400
102
}
330
400
100
DictionaryVariables
280
     0
  1
STANDARD
  0
DICTIONARYVAR
  5
402
102
{ACAD_REACTORS
330
400
102
}
330
400
100
DictionaryVariables
280
     0
  1
1
  0
DICTIONARYVAR
  5
675
102
{ACAD_REACTORS
330
400
102
}
330
400
100
DictionaryVariables
280
     0
  1
0
  0
DICTIONARYVAR
  5
403
102
{ACAD_REACTORS
330
400
102
}
330
400
100
DictionaryVariables
280
     0
  1

  0
DICTIONARYVAR
  5
674
102
{ACAD_REACTORS
330
400
102
}
330
400
100
DictionaryVariables
280
     0
  1
127
  0
DICTIONARYVAR
  5
676
102
{ACAD_REACTORS
330
400
102
}
330
400
100
DictionaryVariables
280
     0
  1
2
  0
DICTIONARY
  5
4BF
102
{ACAD_REACTORS
330
4B5
102
}
330
4B5
100
AcDbDictionary
281
     1
  0
DICTIONARY
  5
67C
330
21
100
AcDbDictionary
280
     1
281
     1
  3
ACAD_XREC_ROUNDTRIP
360
67D
  0
DICTIONARY
  5
67E
330
25
100
AcDbDictionary
280
     1
281
     1
  3
ACAD_XREC_ROUNDTRIP
360
67F
  0
DICTIONARY
  5
416
330
415
100
AcDbDictionary
280
     1
281
     1
  3
ACAD_XREC_ROUNDTRIP
360
681
  3
BUMPTILE
360
418
  3
DIFFUSETILE
360
417
  3
OPACITYTILE
360
41B
  3
REFLECTIONTILE
360
41A
  3
REFRACTIONTILE
360
41C
  3
SPECULARTILE
360
419
  0
DICTIONARY
  5
40E
330
40D
100
AcDbDictionary
280
     1
281
     1
  3
ACAD_XREC_ROUNDTRIP
360
680
  3
BUMPTILE
360
410
  3
DIFFUSETILE
360
40F
  3
OPACITYTILE
360
413
  3
REFLECTIONTILE
360
412
  3
REFRACTIONTILE
360
414
  3
SPECULARTILE
360
411
  0
DICTIONARY
  5
41E
330
41D
100
AcDbDictionary
280
     1
281
     1
  3
ACAD_XREC_ROUNDTRIP
360
682
  3
BUMPTILE
360
420
  3
DIFFUSETILE
360
41F
  3
OPACITYTILE
360
423
  3
REFLECTIONTILE
360
422
  3
REFRACTIONTILE
360
424
  3
SPECULARTILE
360
421
  0
DICTIONARY
  5
677
330
1D
100
AcDbDictionary
280
     1
281
     1
  3
ACAD_ROUNDTRIP_2008_TABLESTYLE_CELLSTYLEMAP
360
678
  3
ACAD_XREC_ROUNDTRIP
360
67B
  0
DICTIONARY
  5
68D
330
42B
100
AcDbDictionary
280
     1
281
     1
  3
ACAD_XREC_ROUNDTRIP
360
68E
  0
DICTIONARY
  5
691
330
42D
100
AcDbDictionary
280
     1
281
     1
  3
ACAD_XREC_ROUNDTRIP
360
692
  0
DICTIONARY
  5
68F
330
42C
100
AcDbDictionary
280
     1
281
     1
  3
ACAD_XREC_ROUNDTRIP
360
690
  0
DICTIONARY
  5
68B
330
42A
100
AcDbDictionary
280
     1
281
     1
  3
ACAD_XREC_ROUNDTRIP
360
68C
  0
DICTIONARY
  5
699
330
431
100
AcDbDictionary
280
     1
281
     1
  3
ACAD_XREC_ROUNDTRIP
360
69A
  0
DICTIONARY
  5
6A1
330
435
100
AcDbDictionary
280
     1
281
     1
  3
ACAD_XREC_ROUNDTRIP
360
6A2
  0
DICTIONARY
  5
693
330
42E
100
AcDbDictionary
280
     1
281
     1
  3
ACAD_XREC_ROUNDTRIP
360
694
  0
DICTIONARY
  5
697
330
430
100
AcDbDictionary
280
     1
281
     1
  3
ACAD_XREC_ROUNDTRIP
360
698
  0
DICTIONARY
  5
6A7
330
438
100
AcDbDictionary
280
     1
281
     1
  3
ACAD_XREC_ROUNDTRIP
360
6A8
  0
DICTIONARY
  5
69F
330
434
100
AcDbDictionary
280
     1
281
     1
  3
ACAD_XREC_ROUNDTRIP
360
6A0
  0
DICTIONARY
  5
683
330
426
100
AcDbDictionary
280
     1
281
     1
  3
ACAD_XREC_ROUNDTRIP
360
684
  0
DICTIONARY
  5
685
330
427
100
AcDbDictionary
280
     1
281
     1
  3
ACAD_XREC_ROUNDTRIP
360
686
  0
DICTIONARY
  5
687
330
428
100
AcDbDictionary
280
     1
281
     1
  3
ACAD_XREC_ROUNDTRIP
360
688
  0
DICTIONARY
  5
689
330
429
100
AcDbDictionary
280
     1
281
     1
  3
ACAD_XREC_ROUNDTRIP
360
68A
  0
DICTIONARY
  5
6A3
330
436
100
AcDbDictionary
280
     1
281
     1
  3
ACAD_XREC_ROUNDTRIP
360
6A4
  0
DICTIONARY
  5
69D
330
433
100
AcDbDictionary
280
     1
281
     1
  3
ACAD_XREC_ROUNDTRIP
360
69E
  0
DICTIONARY
  5
6A5
330
437
100
AcDbDictionary
280
     1
281
     1
  3
ACAD_XREC_ROUNDTRIP
360
6A6
  0
DICTIONARY
  5
695
330
42F
100
AcDbDictionary
280
     1
281
     1
  3
ACAD_XREC_ROUNDTRIP
360
696
  0
DICTIONARY
  5
69B
330
432
100
AcDbDictionary
280
     1
281
     1
  3
ACAD_XREC_ROUNDTRIP
360
69C
  0
XRECORD
  5
67D
102
{ACAD_REACTORS
330
67C
102
}
330
67C
100
AcDbXrecord
280
     1
102
SHADEPLOT
 70
     0
102
SHADEPLOTRESLEVEL
 70
     2
102
SHADEPLOTCUSTOMDPI
 70
   300
  0
XRECORD
  5
67F
102
{ACAD_REACTORS
330
67E
102
}
330
67E
100
AcDbXrecord
280
     1
102
SHADEPLOT
 70
     0
102
SHADEPLOTRESLEVEL
 70
     2
102
SHADEPLOTCUSTOMDPI
 70
   300
  0
XRECORD
  5
681
102
{ACAD_REACTORS
330
416
102
}
330
416
100
AcDbXrecord
280
     1
102
MATERIAL
148
0.0
149
0.0
149
0.0
 93
        0
 94
      127
282
     0
 72
     0
 77
     0
171
     0
175
     0
179
     0
273
     0
  0
XRECORD
  5
418
102
{ACAD_REACTORS
330
416
102
}
330
416
100
AcDbXrecord
280
     1
270
     1
271
     1
  0
XRECORD
  5
417
102
{ACAD_REACTORS
330
416
102
}
330
416
100
AcDbXrecord
280
     1
270
     1
271
     1
  0
XRECORD
  5
41B
102
{ACAD_REACTORS
330
416
102
}
330
416
100
AcDbXrecord
280
     1
270
     1
271
     1
  0
XRECORD
  5
41A
102
{ACAD_REACTORS
330
416
102
}
330
416
100
AcDbXrecord
280
     1
270
     1
271
     1
  0
XRECORD
  5
41C
102
{ACAD_REACTORS
330
416
102
}
330
416
100
AcDbXrecord
280
     1
270
     1
271
     1
  0
XRECORD
  5
419
102
{ACAD_REACTORS
330
416
102
}
330
416
100
AcDbXrecord
280
     1
270
     1
271
     1
  0
XRECORD
  5
680
102
{ACAD_REACTORS
330
40E
102
}
330
40E
100
AcDbXrecord
280
     1
102
MATERIAL
148
0.0
149
0.0
149
0.0
 93
        0
 94
      127
282
     0
 72
     0
 77
     0
171
     0
175
     0
179
     0
273
     0
  0
XRECORD
  5
410
102
{ACAD_REACTORS
330
40E
102
}
330
40E
100
AcDbXrecord
280
     1
270
     1
271
     1
  0
XRECORD
  5
40F
102
{ACAD_REACTORS
330
40E
102
}
330
40E
100
AcDbXrecord
280
     1
270
     1
271
     1
  0
XRECORD
  5
413
102
{ACAD_REACTORS
330
40E
102
}
330
40E
100
AcDbXrecord
280
     1
270
     1
271
     1
  0
XRECORD
  5
412
102
{ACAD_REACTORS
330
40E
102
}
330
40E
100
AcDbXrecord
280
     1
270
     1
271
     1
  0
XRECORD
  5
414
102
{ACAD_REACTORS
330
40E
102
}
330
40E
100
AcDbXrecord
280
     1
270
     1
271
     1
  0
XRECORD
  5
411
102
{ACAD_REACTORS
330
40E
102
}
330
40E
100
AcDbXrecord
280
     1
270
     1
271
     1
  0
XRECORD
  5
682
102
{ACAD_REACTORS
330
41E
102
}
330
41E
100
AcDbXrecord
280
     1
102
MATERIAL
148
0.0
149
0.0
149
0.0
 93
        0
 94
      127
282
     0
 72
     0
 77
     0
171
     0
175
     0
179
     0
273
     0
  0
XRECORD
  5
420
102
{ACAD_REACTORS
330
41E
102
}
330
41E
100
AcDbXrecord
280
     1
270
     1
271
     1
  0
XRECORD
  5
41F
102
{ACAD_REACTORS
330
41E
102
}
330
41E
100
AcDbXrecord
280
     1
270
     1
271
     1
  0
XRECORD
  5
423
102
{ACAD_REACTORS
330
41E
102
}
330
41E
100
AcDbXrecord
280
     1
270
     1
271
     1
  0
XRECORD
  5
422
102
{ACAD_REACTORS
330
41E
102
}
330
41E
100
AcDbXrecord
280
     1
270
     1
271
     1
  0
XRECORD
  5
424
102
{ACAD_REACTORS
330
41E
102
}
330
41E
100
AcDbXrecord
280
     1
270
     1
271
     1
  0
XRECORD
  5
421
102
{ACAD_REACTORS
330
41E
102
}
330
41E
100
AcDbXrecord
280
     1
270
     1
271
     1
  0
CELLSTYLEMAP
  5
678
102
{ACAD_REACTORS
330
677
102
}
330
677
100
AcDbCellStyleMap
 90
        3
300
CELLSTYLE
  1
TABLEFORMAT_BEGIN
 90
        5
170
     1
 91
        0
 92
    32768
 62
   257
 93
        1
300
CONTENTFORMAT
  1
CONTENTFORMAT_BEGIN
 90
        0
 91
        0
 92
        4
 93
        0
300

 40
0.0
140
1.0
 94
        5
 62
     0
340
11
144
0.25
309
CONTENTFORMAT_END
171
     0
 94
        6
 95
        1
302
GRIDFORMAT
  1
GRIDFORMAT_BEGIN
 90
        0
 91
        1
 62
     0
 92
       -2
340
0
 93
        0
 40
0.045
309
GRIDFORMAT_END
 95
        2
302
GRIDFORMAT
  1
GRIDFORMAT_BEGIN
 90
        0
 91
        1
 62
     0
 92
       -2
340
0
 93
        0
 40
0.045
309
GRIDFORMAT_END
 95
        4
302
GRIDFORMAT
  1
GRIDFORMAT_BEGIN
 90
        0
 91
        1
 62
     0
 92
       -2
340
0
 93
        0
 40
0.045
309
GRIDFORMAT_END
 95
        8
302
GRIDFORMAT
  1
GRIDFORMAT_BEGIN
 90
        0
 91
        1
 62
     0
 92
       -2
340
0
 93
        0
 40
0.045
309
GRIDFORMAT_END
 95
       16
302
GRIDFORMAT
  1
GRIDFORMAT_BEGIN
 90
        0
 91
        1
 62
     0
 92
       -2
340
0
 93
        0
 40
0.045
309
GRIDFORMAT_END
 95
       32
302
GRIDFORMAT
  1
GRIDFORMAT_BEGIN
 90
        0
 91
        1
 62
     0
 92
       -2
340
0
 93
        0
 40
0.045
309
GRIDFORMAT_END
309
TABLEFORMAT_END
  1
CELLSTYLE_BEGIN
 90
        1
 91
        1
300
_TITLE
309
CELLSTYLE_END
300
CELLSTYLE
  1
TABLEFORMAT_BEGIN
 90
        5
170
     1
 91
        0
 92
        0
 62
   257
 93
        1
300
CONTENTFORMAT
  1
CONTENTFORMAT_BEGIN
 90
        0
 91
        0
 92
        4
 93
        0
300

 40
0.0
140
1.0
 94
        5
 62
     0
340
11
144
0.18
309
CONTENTFORMAT_END
171
     0
 94
        6
 95
        1
302
GRIDFORMAT
  1
GRIDFORMAT_BEGIN
 90
        0
 91
        1
 62
     0
 92
       -2
340
0
 93
        0
 40
0.045
309
GRIDFORMAT_END
 95
        2
302
GRIDFORMAT
  1
GRIDFORMAT_BEGIN
 90
        0
 91
        1
 62
     0
 92
       -2
340
0
 93
        0
 40
0.045
309
GRIDFORMAT_END
 95
        4
302
GRIDFORMAT
  1
GRIDFORMAT_BEGIN
 90
        0
 91
        1
 62
     0
 92
       -2
340
0
 93
        0
 40
0.045
309
GRIDFORMAT_END
 95
        8
302
GRIDFORMAT
  1
GRIDFORMAT_BEGIN
 90
        0
 91
        1
 62
     0
 92
       -2
340
0
 93
        0
 40
0.045
309
GRIDFORMAT_END
 95
       16
302
GRIDFORMAT
  1
GRIDFORMAT_BEGIN
 90
        0
 91
        1
 62
     0
 92
       -2
340
0
 93
        0
 40
0.045
309
GRIDFORMAT_END
 95
       32
302
GRIDFORMAT
  1
GRIDFORMAT_BEGIN
 90
        0
 91
        1
 62
     0
 92
       -2
340
0
 93
        0
 40
0.045
309
GRIDFORMAT_END
309
TABLEFORMAT_END
  1
CELLSTYLE_BEGIN
 90
        2
 91
        1
300
_HEADER
309
CELLSTYLE_END
300
CELLSTYLE
  1
TABLEFORMAT_BEGIN
 90
        5
170
     1
 91
        0
 92
        0
 62
   257
 93
        1
300
CONTENTFORMAT
  1
CONTENTFORMAT_BEGIN
 90
        0
 91
        0
 92
        4
 93
        0
300

 40
0.0
140
1.0
 94
        2
 62
     0
340
11
144
0.18
309
CONTENTFORMAT_END
171
     0
 94
        6
 95
        1
302
GRIDFORMAT
  1
GRIDFORMAT_BEGIN
 90
        0
 91
        1
 62
     0
 92
       -2
340
0
 93
        0
 40
0.045
309
GRIDFORMAT_END
 95
        2
302
GRIDFORMAT
  1
GRIDFORMAT_BEGIN
 90
        0
 91
        1
 62
     0
 92
       -2
340
0
 93
        0
 40
0.045
309
GRIDFORMAT_END
 95
        4
302
GRIDFORMAT
  1
GRIDFORMAT_BEGIN
 90
        0
 91
        1
 62
     0
 92
       -2
340
0
 93
        0
 40
0.045
309
GRIDFORMAT_END
 95
        8
302
GRIDFORMAT
  1
GRIDFORMAT_BEGIN
 90
        0
 91
        1
 62
     0
 92
       -2
340
0
 93
        0
 40
0.045
309
GRIDFORMAT_END
 95
       16
302
GRIDFORMAT
  1
GRIDFORMAT_BEGIN
 90
        0
 91
        1
 62
     0
 92
       -2
340
0
 93
        0
 40
0.045
309
GRIDFORMAT_END
 95
       32
302
GRIDFORMAT
  1
GRIDFORMAT_BEGIN
 90
        0
 91
        1
 62
     0
 92
       -2
340
0
 93
        0
 40
0.045
309
GRIDFORMAT_END
309
TABLEFORMAT_END
  1
CELLSTYLE_BEGIN
 90
        3
 91
        2
300
_DATA
309
CELLSTYLE_END
  0
XRECORD
  5
67B
102
{ACAD_REACTORS
330
677
102
}
330
677
100
AcDbXrecord
280
     1
102
ACAD_ROUNDTRIP_PRE2007_TABLESTYLE
 90
        4
 91
        0
  1

 92
        4
 93
        0
  2

 94
        4
 95
        0
  3

  0
XRECORD
  5
68E
102
{ACAD_REACTORS
330
68D
102
}
330
68D
100
AcDbXrecord
280
     1
102
RTVSPropertyOp0
 70
     1
102
RTVSPropertyOp1
 70
     1
102
RTVSPropertyOp2
 70
     1
102
RTVSPropertyOp3
 70
     1
102
RTVSPropertyOp4
 70
     1
102
RTVSPropertyOp5
 70
     1
102
RTVSPropertyOp6
 70
     1
102
RTVSPropertyOp7
 70
     1
102
RTVSPropertyOp8
 70
     1
102
RTVSPropertyOp9
 70
     1
102
RTVSPropertyOp10
 70
     1
102
RTVSPropertyOp11
 70
     1
102
RTVSPropertyOp12
 70
     1
102
RTVSPropertyOp13
 70
     1
102
RTVSPropertyOp14
 70
     1
102
RTVSPropertyOp15
 70
     1
102
RTVSPropertyOp16
 70
     1
102
RTVSPropertyOp17
 70
     1
102
RTVSPropertyOp18
 70
     1
102
RTVSPropertyOp19
 70
     1
102
RTVSPropertyOp20
 70
     1
102
RTVSPropertyOp21
 70
     1
102
RTVSPropertyOp22
 70
     1
102
RTVSPropertyOp23
 70
     1
102
RTVSPropertyOp24
 70
     1
102
RTVSPropertyOp25
 70
     1
102
RTVSPropertyOp26
 70
     1
102
RTVSPropertyOp27
 70
     1
  0
XRECORD
  5
692
102
{ACAD_REACTORS
330
691
102
}
330
691
100
AcDbXrecord
280
     1
102
RTVSPropertyOp0
 70
     1
102
RTVSPropertyOp1
 70
     1
102
RTVSPropertyOp2
 70
     1
102
RTVSPropertyOp3
 70
     1
102
RTVSPropertyOp4
 70
     1
102
RTVSPropertyOp5
 70
     1
102
RTVSPropertyOp6
 70
     1
102
RTVSPropertyOp7
 70
     1
102
RTVSPropertyOp8
 70
     1
102
RTVSPropertyOp9
 70
     1
102
RTVSPropertyOp10
 70
     1
102
RTVSPropertyOp11
 70
     1
102
RTVSPropertyOp12
 70
     1
102
RTVSPropertyOp13
 70
     1
102
RTVSPropertyOp14
 70
     1
102
RTVSPropertyOp15
 70
     1
102
RTVSPropertyOp16
 70
     1
102
RTVSPropertyOp17
 70
     1
102
RTVSPropertyOp18
 70
     1
102
RTVSPropertyOp19
 70
     1
102
RTVSPropertyOp20
 70
     1
102
RTVSPropertyOp21
 70
     1
102
RTVSPropertyOp22
 70
     1
102
RTVSPropertyOp23
 70
     1
102
RTVSPropertyOp24
 70
     1
102
RTVSPropertyOp25
 70
     1
102
RTVSPropertyOp26
 70
     1
102
RTVSPropertyOp27
 70
     1
  0
XRECORD
  5
690
102
{ACAD_REACTORS
330
68F
102
}
330
68F
100
AcDbXrecord
280
     1
102
RTVSPropertyOp0
 70
     1
102
RTVSPropertyOp1
 70
     1
102
RTVSPropertyOp2
 70
     1
102
RTVSPropertyOp3
 70
     1
102
RTVSPropertyOp4
 70
     1
102
RTVSPropertyOp5
 70
     1
102
RTVSPropertyOp6
 70
     1
102
RTVSPropertyOp7
 70
     1
102
RTVSPropertyOp8
 70
     1
102
RTVSPropertyOp9
 70
     1
102
RTVSPropertyOp10
 70
     1
102
RTVSPropertyOp11
 70
     1
102
RTVSPropertyOp12
 70
     1
102
RTVSPropertyOp13
 70
     1
102
RTVSPropertyOp14
 70
     1
102
RTVSPropertyOp15
 70
     1
102
RTVSPropertyOp16
 70
     1
102
RTVSPropertyOp17
 70
     1
102
RTVSPropertyOp18
 70
     1
102
RTVSPropertyOp19
 70
     1
102
RTVSPropertyOp20
 70
     1
102
RTVSPropertyOp21
 70
     1
102
RTVSPropertyOp22
 70
     1
102
RTVSPropertyOp23
 70
     1
102
RTVSPropertyOp24
 70
     1
102
RTVSPropertyOp25
 70
     1
102
RTVSPropertyOp26
 70
     1
102
RTVSPropertyOp27
 70
     1
  0
XRECORD
  5
68C
102
{ACAD_REACTORS
330
68B
102
}
330
68B
100
AcDbXrecord
280
     1
102
RTVSPropertyOp0
 70
     1
102
RTVSPropertyOp1
 70
     1
102
RTVSPropertyOp2
 70
     1
102
RTVSPropertyOp3
 70
     1
102
RTVSPropertyOp4
 70
     1
102
RTVSPropertyOp5
 70
     1
102
RTVSPropertyOp6
 70
     1
102
RTVSPropertyOp7
 70
     1
102
RTVSPropertyOp8
 70
     1
102
RTVSPropertyOp9
 70
     1
102
RTVSPropertyOp10
 70
     1
102
RTVSPropertyOp11
 70
     1
102
RTVSPropertyOp12
 70
     1
102
RTVSPropertyOp13
 70
     1
102
RTVSPropertyOp14
 70
     1
102
RTVSPropertyOp15
 70
     1
102
RTVSPropertyOp16
 70
     1
102
RTVSPropertyOp17
 70
     1
102
RTVSPropertyOp18
 70
     1
102
RTVSPropertyOp19
 70
     1
102
RTVSPropertyOp20
 70
     1
102
RTVSPropertyOp21
 70
     1
102
RTVSPropertyOp22
 70
     1
102
RTVSPropertyOp23
 70
     1
102
RTVSPropertyOp24
 70
     1
102
RTVSPropertyOp25
 70
     1
102
RTVSPropertyOp26
 70
     1
102
RTVSPropertyOp27
 70
     1
  0
XRECORD
  5
69A
102
{ACAD_REACTORS
330
699
102
}
330
699
100
AcDbXrecord
280
     1
102
RTVSPropertyOp0
 70
     1
102
RTVSPropertyOp1
 70
     1
102
RTVSPropertyOp2
 70
     1
102
RTVSPropertyOp3
 70
     1
102
RTVSPropertyOp4
 70
     1
102
RTVSPropertyOp5
 70
     1
102
RTVSPropertyOp6
 70
     1
102
RTVSPropertyOp7
 70
     1
102
RTVSPropertyOp8
 70
     1
102
RTVSPropertyOp9
 70
     1
102
RTVSPropertyOp10
 70
     1
102
RTVSPropertyOp11
 70
     1
102
RTVSPropertyOp12
 70
     1
102
RTVSPropertyOp13
 70
     1
102
RTVSPropertyOp14
 70
     1
102
RTVSPropertyOp15
 70
     1
102
RTVSPropertyOp16
 70
     1
102
RTVSPropertyOp17
 70
     1
102
RTVSPropertyOp18
 70
     1
102
RTVSPropertyOp19
 70
     1
102
RTVSPropertyOp20
 70
     1
102
RTVSPropertyOp21
 70
     1
102
RTVSPropertyOp22
 70
     1
102
RTVSPropertyOp23
 70
     1
102
RTVSPropertyOp24
 70
     1
102
RTVSPropertyOp25
 70
     1
102
RTVSPropertyOp26
 70
     1
102
RTVSPropertyOp27
 70
     1
  0
XRECORD
  5
6A2
102
{ACAD_REACTORS
330
6A1
102
}
330
6A1
100
AcDbXrecord
280
     1
102
RTVSPropertyOp0
 70
     1
102
RTVSPropertyOp1
 70
     1
102
RTVSPropertyOp2
 70
     1
102
RTVSPropertyOp3
 70
     1
102
RTVSPropertyOp4
 70
     1
102
RTVSPropertyOp5
 70
     1
102
RTVSPropertyOp6
 70
     1
102
RTVSPropertyOp7
 70
     1
102
RTVSPropertyOp8
 70
     1
102
RTVSPropertyOp9
 70
     1
102
RTVSPropertyOp10
 70
     1
102
RTVSPropertyOp11
 70
     1
102
RTVSPropertyOp12
 70
     1
102
RTVSPropertyOp13
 70
     1
102
RTVSPropertyOp14
 70
     1
102
RTVSPropertyOp15
 70
     1
102
RTVSPropertyOp16
 70
     1
102
RTVSPropertyOp17
 70
     1
102
RTVSPropertyOp18
 70
     1
102
RTVSPropertyOp19
 70
     1
102
RTVSPropertyOp20
 70
     1
102
RTVSPropertyOp21
 70
     1
102
RTVSPropertyOp22
 70
     1
102
RTVSPropertyOp23
 70
     1
102
RTVSPropertyOp24
 70
     1
102
RTVSPropertyOp25
 70
     1
102
RTVSPropertyOp26
 70
     1
102
RTVSPropertyOp27
 70
     1
  0
XRECORD
  5
694
102
{ACAD_REACTORS
330
693
102
}
330
693
100
AcDbXrecord
280
     1
102
RTVSPropertyOp0
 70
     1
102
RTVSPropertyOp1
 70
     1
102
RTVSPropertyOp2
 70
     1
102
RTVSPropertyOp3
 70
     1
102
RTVSPropertyOp4
 70
     1
102
RTVSPropertyOp5
 70
     1
102
RTVSPropertyOp6
 70
     1
102
RTVSPropertyOp7
 70
     1
102
RTVSPropertyOp8
 70
     1
102
RTVSPropertyOp9
 70
     1
102
RTVSPropertyOp10
 70
     1
102
RTVSPropertyOp11
 70
     1
102
RTVSPropertyOp12
 70
     1
102
RTVSPropertyOp13
 70
     1
102
RTVSPropertyOp14
 70
     1
102
RTVSPropertyOp15
 70
     1
102
RTVSPropertyOp16
 70
     1
102
RTVSPropertyOp17
 70
     1
102
RTVSPropertyOp18
 70
     1
102
RTVSPropertyOp19
 70
     1
102
RTVSPropertyOp20
 70
     1
102
RTVSPropertyOp21
 70
     1
102
RTVSPropertyOp22
 70
     1
102
RTVSPropertyOp23
 70
     1
102
RTVSPropertyOp24
 70
     1
102
RTVSPropertyOp25
 70
     1
102
RTVSPropertyOp26
 70
     1
102
RTVSPropertyOp27
 70
     1
  0
XRECORD
  5
698
102
{ACAD_REACTORS
330
697
102
}
330
697
100
AcDbXrecord
280
     1
102
RTVSPropertyOp0
 70
     1
102
RTVSPropertyOp1
 70
     1
102
RTVSPropertyOp2
 70
     1
102
RTVSPropertyOp3
 70
     1
102
RTVSPropertyOp4
 70
     1
102
RTVSPropertyOp5
 70
     1
102
RTVSPropertyOp6
 70
     1
102
RTVSPropertyOp7
 70
     1
102
RTVSPropertyOp8
 70
     1
102
RTVSPropertyOp9
 70
     1
102
RTVSPropertyOp10
 70
     1
102
RTVSPropertyOp11
 70
     1
102
RTVSPropertyOp12
 70
     1
102
RTVSPropertyOp13
 70
     1
102
RTVSPropertyOp14
 70
     1
102
RTVSPropertyOp15
 70
     1
102
RTVSPropertyOp16
 70
     1
102
RTVSPropertyOp17
 70
     1
102
RTVSPropertyOp18
 70
     1
102
RTVSPropertyOp19
 70
     1
102
RTVSPropertyOp20
 70
     1
102
RTVSPropertyOp21
 70
     1
102
RTVSPropertyOp22
 70
     1
102
RTVSPropertyOp23
 70
     1
102
RTVSPropertyOp24
 70
     1
102
RTVSPropertyOp25
 70
     1
102
RTVSPropertyOp26
 70
     1
102
RTVSPropertyOp27
 70
     1
  0
XRECORD
  5
6A8
102
{ACAD_REACTORS
330
6A7
102
}
330
6A7
100
AcDbXrecord
280
     1
102
RTVSPropertyOp0
 70
     0
102
RTVSPropertyOp1
 70
     0
102
RTVSPropertyOp2
 70
     0
102
RTVSPropertyOp3
 70
     0
102
RTVSPropertyOp4
 70
     0
102
RTVSPropertyOp5
 70
     0
102
RTVSPropertyOp6
 70
     0
102
RTVSPropertyOp7
 70
     0
102
RTVSPropertyOp8
 70
     0
102
RTVSPropertyOp9
 70
     0
102
RTVSPropertyOp10
 70
     0
102
RTVSPropertyOp11
 70
     0
102
RTVSPropertyOp12
 70
     0
102
RTVSPropertyOp13
 70
     0
102
RTVSPropertyOp14
 70
     2
102
RTVSPropertyOp15
 70
     0
102
RTVSPropertyOp16
 70
     0
102
RTVSPropertyOp17
 70
     0
102
RTVSPropertyOp18
 70
     0
102
RTVSPropertyOp19
 70
     0
102
RTVSPropertyOp20
 70
     0
102
RTVSPropertyOp21
 70
     0
102
RTVSPropertyOp22
 70
     0
102
RTVSPropertyOp23
 70
     0
102
RTVSPropertyOp24
 70
     0
102
RTVSPropertyOp25
 70
     0
102
RTVSPropertyOp26
 70
     0
102
RTVSPropertyOp27
 70
     0
  0
XRECORD
  5
6A0
102
{ACAD_REACTORS
330
69F
102
}
330
69F
100
AcDbXrecord
280
     1
102
RTVSPropertyOp0
 70
     1
102
RTVSPropertyOp1
 70
     1
102
RTVSPropertyOp2
 70
     1
102
RTVSPropertyOp3
 70
     1
102
RTVSPropertyOp4
 70
     1
102
RTVSPropertyOp5
 70
     1
102
RTVSPropertyOp6
 70
     1
102
RTVSPropertyOp7
 70
     1
102
RTVSPropertyOp8
 70
     1
102
RTVSPropertyOp9
 70
     1
102
RTVSPropertyOp10
 70
     1
102
RTVSPropertyOp11
 70
     1
102
RTVSPropertyOp12
 70
     1
102
RTVSPropertyOp13
 70
     1
102
RTVSPropertyOp14
 70
     1
102
RTVSPropertyOp15
 70
     1
102
RTVSPropertyOp16
 70
     1
102
RTVSPropertyOp17
 70
     1
102
RTVSPropertyOp18
 70
     1
102
RTVSPropertyOp19
 70
     1
102
RTVSPropertyOp20
 70
     1
102
RTVSPropertyOp21
 70
     1
102
RTVSPropertyOp22
 70
     1
102
RTVSPropertyOp23
 70
     1
102
RTVSPropertyOp24
 70
     1
102
RTVSPropertyOp25
 70
     1
102
RTVSPropertyOp26
 70
     1
102
RTVSPropertyOp27
 70
     1
  0
XRECORD
  5
684
102
{ACAD_REACTORS
330
683
102
}
330
683
100
AcDbXrecord
280
     1
102
RTVSPropertyOp0
 70
     1
102
RTVSPropertyOp1
 70
     1
102
RTVSPropertyOp2
 70
     1
102
RTVSPropertyOp3
 70
     1
102
RTVSPropertyOp4
 70
     1
102
RTVSPropertyOp5
 70
     1
102
RTVSPropertyOp6
 70
     1
102
RTVSPropertyOp7
 70
     1
102
RTVSPropertyOp8
 70
     1
102
RTVSPropertyOp9
 70
     1
102
RTVSPropertyOp10
 70
     1
102
RTVSPropertyOp11
 70
     1
102
RTVSPropertyOp12
 70
     1
102
RTVSPropertyOp13
 70
     1
102
RTVSPropertyOp14
 70
     1
102
RTVSPropertyOp15
 70
     1
102
RTVSPropertyOp16
 70
     1
102
RTVSPropertyOp17
 70
     1
102
RTVSPropertyOp18
 70
     1
102
RTVSPropertyOp19
 70
     1
102
RTVSPropertyOp20
 70
     1
102
RTVSPropertyOp21
 70
     1
102
RTVSPropertyOp22
 70
     1
102
RTVSPropertyOp23
 70
     1
102
RTVSPropertyOp24
 70
     1
102
RTVSPropertyOp25
 70
     1
102
RTVSPropertyOp26
 70
     1
102
RTVSPropertyOp27
 70
     1
  0
XRECORD
  5
686
102
{ACAD_REACTORS
330
685
102
}
330
685
100
AcDbXrecord
280
     1
102
RTVSPropertyOp0
 70
     1
102
RTVSPropertyOp1
 70
     1
102
RTVSPropertyOp2
 70
     1
102
RTVSPropertyOp3
 70
     1
102
RTVSPropertyOp4
 70
     1
102
RTVSPropertyOp5
 70
     1
102
RTVSPropertyOp6
 70
     1
102
RTVSPropertyOp7
 70
     1
102
RTVSPropertyOp8
 70
     1
102
RTVSPropertyOp9
 70
     1
102
RTVSPropertyOp10
 70
     1
102
RTVSPropertyOp11
 70
     1
102
RTVSPropertyOp12
 70
     1
102
RTVSPropertyOp13
 70
     1
102
RTVSPropertyOp14
 70
     1
102
RTVSPropertyOp15
 70
     1
102
RTVSPropertyOp16
 70
     1
102
RTVSPropertyOp17
 70
     1
102
RTVSPropertyOp18
 70
     1
102
RTVSPropertyOp19
 70
     1
102
RTVSPropertyOp20
 70
     1
102
RTVSPropertyOp21
 70
     1
102
RTVSPropertyOp22
 70
     1
102
RTVSPropertyOp23
 70
     1
102
RTVSPropertyOp24
 70
     1
102
RTVSPropertyOp25
 70
     1
102
RTVSPropertyOp26
 70
     1
102
RTVSPropertyOp27
 70
     1
  0
XRECORD
  5
688
102
{ACAD_REACTORS
330
687
102
}
330
687
100
AcDbXrecord
280
     1
102
RTVSPropertyOp0
 70
     1
102
RTVSPropertyOp1
 70
     1
102
RTVSPropertyOp2
 70
     1
102
RTVSPropertyOp3
 70
     1
102
RTVSPropertyOp4
 70
     1
102
RTVSPropertyOp5
 70
     1
102
RTVSPropertyOp6
 70
     1
102
RTVSPropertyOp7
 70
     1
102
RTVSPropertyOp8
 70
     1
102
RTVSPropertyOp9
 70
     1
102
RTVSPropertyOp10
 70
     1
102
RTVSPropertyOp11
 70
     1
102
RTVSPropertyOp12
 70
     1
102
RTVSPropertyOp13
 70
     1
102
RTVSPropertyOp14
 70
     1
102
RTVSPropertyOp15
 70
     1
102
RTVSPropertyOp16
 70
     1
102
RTVSPropertyOp17
 70
     1
102
RTVSPropertyOp18
 70
     1
102
RTVSPropertyOp19
 70
     1
102
RTVSPropertyOp20
 70
     1
102
RTVSPropertyOp21
 70
     1
102
RTVSPropertyOp22
 70
     1
102
RTVSPropertyOp23
 70
     1
102
RTVSPropertyOp24
 70
     1
102
RTVSPropertyOp25
 70
     1
102
RTVSPropertyOp26
 70
     1
102
RTVSPropertyOp27
 70
     1
  0
XRECORD
  5
68A
102
{ACAD_REACTORS
330
689
102
}
330
689
100
AcDbXrecord
280
     1
102
RTVSPropertyOp0
 70
     1
102
RTVSPropertyOp1
 70
     1
102
RTVSPropertyOp2
 70
     1
102
RTVSPropertyOp3
 70
     1
102
RTVSPropertyOp4
 70
     1
102
RTVSPropertyOp5
 70
     1
102
RTVSPropertyOp6
 70
     1
102
RTVSPropertyOp7
 70
     1
102
RTVSPropertyOp8
 70
     1
102
RTVSPropertyOp9
 70
     1
102
RTVSPropertyOp10
 70
     1
102
RTVSPropertyOp11
 70
     1
102
RTVSPropertyOp12
 70
     1
102
RTVSPropertyOp13
 70
     1
102
RTVSPropertyOp14
 70
     1
102
RTVSPropertyOp15
 70
     1
102
RTVSPropertyOp16
 70
     1
102
RTVSPropertyOp17
 70
     1
102
RTVSPropertyOp18
 70
     1
102
RTVSPropertyOp19
 70
     1
102
RTVSPropertyOp20
 70
     1
102
RTVSPropertyOp21
 70
     1
102
RTVSPropertyOp22
 70
     1
102
RTVSPropertyOp23
 70
     1
102
RTVSPropertyOp24
 70
     1
102
RTVSPropertyOp25
 70
     1
102
RTVSPropertyOp26
 70
     1
102
RTVSPropertyOp27
 70
     1
  0
XRECORD
  5
6A4
102
{ACAD_REACTORS
330
6A3
102
}
330
6A3
100
AcDbXrecord
280
     1
102
RTVSPropertyOp0
 70
     0
102
RTVSPropertyOp1
 70
     0
102
RTVSPropertyOp2
 70
     0
102
RTVSPropertyOp3
 70
     0
102
RTVSPropertyOp4
 70
     0
102
RTVSPropertyOp5
 70
     0
102
RTVSPropertyOp6
 70
     0
102
RTVSPropertyOp7
 70
     0
102
RTVSPropertyOp8
 70
     0
102
RTVSPropertyOp9
 70
     0
102
RTVSPropertyOp10
 70
     0
102
RTVSPropertyOp11
 70
     0
102
RTVSPropertyOp12
 70
     0
102
RTVSPropertyOp13
 70
     0
102
RTVSPropertyOp14
 70
     2
102
RTVSPropertyOp15
 70
     0
102
RTVSPropertyOp16
 70
     0
102
RTVSPropertyOp17
 70
     0
102
RTVSPropertyOp18
 70
     0
102
RTVSPropertyOp19
 70
     0
102
RTVSPropertyOp20
 70
     0
102
RTVSPropertyOp21
 70
     0
102
RTVSPropertyOp22
 70
     0
102
RTVSPropertyOp23
 70
     0
102
RTVSPropertyOp24
 70
     0
102
RTVSPropertyOp25
 70
     0
102
RTVSPropertyOp26
 70
     0
102
RTVSPropertyOp27
 70
     0
  0
XRECORD
  5
69E
102
{ACAD_REACTORS
330
69D
102
}
330
69D
100
AcDbXrecord
280
     1
102
RTVSPropertyOp0
 70
     1
102
RTVSPropertyOp1
 70
     1
102
RTVSPropertyOp2
 70
     1
102
RTVSPropertyOp3
 70
     1
102
RTVSPropertyOp4
 70
     1
102
RTVSPropertyOp5
 70
     1
102
RTVSPropertyOp6
 70
     1
102
RTVSPropertyOp7
 70
     1
102
RTVSPropertyOp8
 70
     1
102
RTVSPropertyOp9
 70
     1
102
RTVSPropertyOp10
 70
     1
102
RTVSPropertyOp11
 70
     1
102
RTVSPropertyOp12
 70
     1
102
RTVSPropertyOp13
 70
     1
102
RTVSPropertyOp14
 70
     1
102
RTVSPropertyOp15
 70
     1
102
RTVSPropertyOp16
 70
     1
102
RTVSPropertyOp17
 70
     1
102
RTVSPropertyOp18
 70
     1
102
RTVSPropertyOp19
 70
     1
102
RTVSPropertyOp20
 70
     1
102
RTVSPropertyOp21
 70
     1
102
RTVSPropertyOp22
 70
     1
102
RTVSPropertyOp23
 70
     1
102
RTVSPropertyOp24
 70
     1
102
RTVSPropertyOp25
 70
     1
102
RTVSPropertyOp26
 70
     1
102
RTVSPropertyOp27
 70
     1
  0
XRECORD
  5
6A6
102
{ACAD_REACTORS
330
6A5
102
}
330
6A5
100
AcDbXrecord
280
     1
102
RTVSPropertyOp0
 70
     0
102
RTVSPropertyOp1
 70
     0
102
RTVSPropertyOp2
 70
     0
102
RTVSPropertyOp3
 70
     0
102
RTVSPropertyOp4
 70
     0
102
RTVSPropertyOp5
 70
     0
102
RTVSPropertyOp6
 70
     0
102
RTVSPropertyOp7
 70
     0
102
RTVSPropertyOp8
 70
     0
102
RTVSPropertyOp9
 70
     0
102
RTVSPropertyOp10
 70
     0
102
RTVSPropertyOp11
 70
     0
102
RTVSPropertyOp12
 70
     0
102
RTVSPropertyOp13
 70
     0
102
RTVSPropertyOp14
 70
     2
102
RTVSPropertyOp15
 70
     0
102
RTVSPropertyOp16
 70
     0
102
RTVSPropertyOp17
 70
     0
102
RTVSPropertyOp18
 70
     0
102
RTVSPropertyOp19
 70
     0
102
RTVSPropertyOp20
 70
     0
102
RTVSPropertyOp21
 70
     0
102
RTVSPropertyOp22
 70
     0
102
RTVSPropertyOp23
 70
     0
102
RTVSPropertyOp24
 70
     0
102
RTVSPropertyOp25
 70
     0
102
RTVSPropertyOp26
 70
     0
102
RTVSPropertyOp27
 70
     0
  0
XRECORD
  5
696
102
{ACAD_REACTORS
330
695
102
}
330
695
100
AcDbXrecord
280
     1
102
RTVSPropertyOp0
 70
     1
102
RTVSPropertyOp1
 70
     1
102
RTVSPropertyOp2
 70
     1
102
RTVSPropertyOp3
 70
     1
102
RTVSPropertyOp4
 70
     1
102
RTVSPropertyOp5
 70
     1
102
RTVSPropertyOp6
 70
     1
102
RTVSPropertyOp7
 70
     1
102
RTVSPropertyOp8
 70
     1
102
RTVSPropertyOp9
 70
     1
102
RTVSPropertyOp10
 70
     1
102
RTVSPropertyOp11
 70
     1
102
RTVSPropertyOp12
 70
     1
102
RTVSPropertyOp13
 70
     1
102
RTVSPropertyOp14
 70
     1
102
RTVSPropertyOp15
 70
     1
102
RTVSPropertyOp16
 70
     1
102
RTVSPropertyOp17
 70
     1
102
RTVSPropertyOp18
 70
     1
102
RTVSPropertyOp19
 70
     1
102
RTVSPropertyOp20
 70
     1
102
RTVSPropertyOp21
 70
     1
102
RTVSPropertyOp22
 70
     1
102
RTVSPropertyOp23
 70
     1
102
RTVSPropertyOp24
 70
     1
102
RTVSPropertyOp25
 70
     1
102
RTVSPropertyOp26
 70
     1
102
RTVSPropertyOp27
 70
     1
  0
XRECORD
  5
69C
102
{ACAD_REACTORS
330
69B
102
}
330
69B
100
AcDbXrecord
280
     1
102
RTVSPropertyOp0
 70
     1
102
RTVSPropertyOp1
 70
     1
102
RTVSPropertyOp2
 70
     1
102
RTVSPropertyOp3
 70
     1
102
RTVSPropertyOp4
 70
     1
102
RTVSPropertyOp5
 70
     1
102
RTVSPropertyOp6
 70
     1
102
RTVSPropertyOp7
 70
     1
102
RTVSPropertyOp8
 70
     1
102
RTVSPropertyOp9
 70
     1
102
RTVSPropertyOp10
 70
     1
102
RTVSPropertyOp11
 70
     1
102
RTVSPropertyOp12
 70
     1
102
RTVSPropertyOp13
 70
     1
102
RTVSPropertyOp14
 70
     1
102
RTVSPropertyOp15
 70
     1
102
RTVSPropertyOp16
 70
     1
102
RTVSPropertyOp17
 70
     1
102
RTVSPropertyOp18
 70
     1
102
RTVSPropertyOp19
 70
     1
102
RTVSPropertyOp20
 70
     1
102
RTVSPropertyOp21
 70
     1
102
RTVSPropertyOp22
 70
     1
102
RTVSPropertyOp23
 70
     1
102
RTVSPropertyOp24
 70
     1
102
RTVSPropertyOp25
 70
     1
102
RTVSPropertyOp26
 70
     1
102
RTVSPropertyOp27
 70
     1
  0
ENDSEC
  0
EOF
